Oops, an error
Loading. Please wait.

Act One Scene One Tab

version 2
version 2

Whole song

Interactive

42,421 views 51 this week
28 commentsread comments
1 2 3 4 5
excellent!
x 17
add to favorites
launch autoscroll
font size
0
reset
how to read this tab
guitar tuner
Autoscroll
slow
fast
+/-
esc
set tempo
stop
Help us to improve Ultimate-Guitar.com Take our survey!
×
Contributor
Difficulty
Tuning
advanced
D A D G B E
question?, email: thecrazypinksid@yahoo.com

*the fill on the fifth is played only once thoughtout the whole song.

drop D
intro/verse
distortion

e:--------------------------------------------|
b:--------------------------------------------|
g:---*5-------4-4--5-5---------------2-2--4-4-|
d:7-7----7-7--x-x--x-x x2--6-6--6-6--x-x--x-x-|
a:x-x----x-x--x-x--x-x-----x-x--x-x--x-x--x-x-|
D:3-3----3-3--3-3--3-3-----2-2--2-2--2-2--2-2-|
cont.
e:-----------------------------------------|
b:-------8h10-15p13p12---------------------|
g:7h9p7p0-------------h14h12---------------|
d:-------------------------h14-12h14p12\10-|
a:-----------------------------------------|
D:-----------------------------------------|

e:------------------------------------------------------------------|
b:------------------------------------------------------------------|
g:----------4-4--5-5---------------2-2--4-4---------------4-4--5-5--|
d:7-7--7-7--x-x--x-x x2--6-6--6-6--x-x--x-x x2--7-7--7-7--x-x--x-x--| x2
a:x-x--x-x--x-x--x-x-----x-x--x-x--x-x--x-x-----x-x--x-x--x-x--x-x--|
D:3-3--3-3--3-3--3-3-----2-2--2-2--2-2--2-2-----3-3--3-3--3-3--3-3--|
cont.
e:--------------------------------------------------------------------|
b:---------------------------------8h10-15p13p12----------------------|
g:----------2-2--4-4--------7h9p7p0-------------h14h12----------------|
d:6-6--6-6--x-x--x-x x2-------------------------------h14-12h14p12\10-|
a:x-x--x-x--x-x--x-x   -----------------------------------------------|
D:2-2--2-2--2-2--2-2--------------------------------------------------|

e:---------------------------------------------------------|(only played the sceond time around
b:------------------------------------------------3--------|p0without last bar chord)
g:---------------------------------------------------------|
d:3-3-3-3-3-3-5-5-5-7-7-7-----2-2-2-2-2-2-2-2-2-2-2-2------|
a:3-3-3-3-3-3-5-5-5-7-7-7 x2--2-2-2-2-2-2-2-2-2-2-2-2  x2--|
D:3-3-3-3-3-3-5-5-5-7-7-7-----2-2-2-2-2-2-2-2-2-2-2-2------|

e:-------------------------------------------------------------|
B:-------------------------------------------------------------|
g:-------------------------------------------------------------|
d:3-3-3-3-3-3-5-5-5-7-7-7-----------------------9-9-9-9-9-9-7--|
a:3-3-3-3-3-3-5-5-5-7-7-7 x2with triple picking-x-x-x-x-x-x-x--| x2
D:3-3-3-3-3-3-5-5-5-7-7-7-----------------------7-7-7-7-7-7-5--|

chorus

e:-----------------------------------------------------------------|
b:5-6--5-6--5-6--5-6------------------12p8h12p8h12p8---------------|
g:5-7--5-7--5-7--5-7 x2-12p9h12p9h12p9--------------12p9h12p9h12p9-|
d:-----------------------------------------------------------------|
a:-----------------------------------------------------------------|
D:-----------------------------------------------------------------|
cont.
e:-----------------
b:15p12h15p12h15p12
g:-----------------|
d:-----------------| x4(from beginning of chorus)
a:-----------------|
D:-----------------|

e:------------------------------------------------|
b:------------------------------------------------|
g:5-7-10-9-12-10-7-9------10-10-10-10-10-10-9-----|
d:5-7-10-9-12-10-7-9-- x2-7--7--7--7--7--7--6-----| x2
a:3-5-8--7-10-8--5-7------8--8--8--8--8--8--7-----|
D:------------------------------------------------|

e:7p0-------10p0-7p0---14p0-10p0---------------------------------|
b:---8p0------------8p0---------12-10h12p10p0-8p0-7h8p7p0--------|
g;------7p0----------------------------------------------9p0-7p0-|
d:---------------------------------------------------------------|
a:---------------------------------------------------------------|
D:---------------------------------------------------------------|
cont.                                                            x2
e:7p0-------10p0-7p0---14p0-10p0--------------------------------|
b:---8p0------------8p0---------14p11----14p11------------------|
g;------7p0--------------------------12p9-----12p9--------------|
d:-------------------------------------------------8-7-7-7------|
a:-------------------------------------------------8-7-7-7------|
D:-------------------------------------------------8-7-7-7------|
                                                    pm pm pm

e:7p0-------10p0-7p0---14p0-10p0---------------------------------|
b:---8p0------------8p0---------12-10h12p10p0-8p0-7h8p7p0--------|
g:------7p0----------------------------------------------9p0-7p0-|
d:---------------------------------------------------------------|
a:---------------------------------------------------------------|
D:---------------------------------------------------------------|

e:7p0-------10p0-7p0---14p0-10p0--------------------------------|
b:---8p0------------8p0---------14p11----14p11------------------|
g;------7p0--------------------------12p9-----12p9--------------|
d:------------------------------------------------8-7-7-7-------|
a:------------------------------------------------8-7-7-7-------|
D:------------------------------------------------8-7-7-7-------|
                                                   pm pm pm
outro/solo
start clean guitar
e:----------------------------------3p0-------------|
b:-----5-------0-1-0-----3h5p3----------0h3---------|
g:0-5------5---0-----0--5-----h5p0-0-------2/4\2p0--|
d:7---7--7---7-------3-------------3----------------| x2
a:--------------------------------------------------|
D:--------------------------------------------------|

e:0-----0-|
b:1-0-1-1-|
g:2-0-0-0-| (listen to the recording, and stum this , figure it out)
d:--0-0-3-|
a:--------|
D:--------|

e:7p0------------------------------|
b:---8p0---------------------------|
g:------7--------------------------|p0 (second guitar dose this as the stuming is going on,
d:---------  right befor the solo--|
a:---------------------------------|
D:---------------------------------|

solo
e:-------------------------------------------------------------|
b:-------------------------------------------------------------|
g:12-12-12-12-12-12-12-12-12-12-12-12-9-9-9-9-9-9-9-9-9-9-9-9--| x2
d:-------------------------------------------------------------|double picking
a:-------------------------------------------------------------|
D:-------------------------------------------------------------|

e:------------------------------------------------------------|
b:------------------------------------------------------------|
g:10-10-10-10-10-10-10-10-10-10-10-10-9-9-9-9-9-9-9-9-9-9-9-9-|
d:------------------------------------------------------------|double picking
a:------------------------------------------------------------|
D:------------------------------------------------------------|

e:--------------------------------|
b:--------------------------------|
g:--------------------------------|
d:10-10--10-10--12-12--12-12--9-9-|
a:10-10--10-10--12-12--12-12--9-9-|
D:10-10--10-10--12-12--12-12--9-9-|

e:--------------------------------------------------------------------------|
b:--10-12-12b13b12-p10--10b11----8h10-8h10b11-------------13-15p13-15b17b15-|
g:12------------------h12----12-9------------12-14b16b14-12-----------------|
d:--------------------------------------------------------------------------|
a:--------------------------------------------------------------------------|
D:--------------------------------------------------------------------------|

e:----------------------------------------------------------------------|
b:p13------15b17b15---------15b17b15------------------------------------|
g:----14-17--------17--14-17---------14b15-12---------------------------|
d:---17--------------17------------17--------14-12h14p12----------------|
a:------------------------------------------------------15-14-15-12-14--|
D:----------------------------------------------------------------------|

e:-----------------------------------------------------------------|
b:-----------------------------------------------------------------|
g:-----------------------------------------------------------------|
d:-----12-14-12--------12-14-12----10-10--10-10--12-12--12-12--9-9-|
a:12-15---------15-12-15-------15--10-10--10-10--12-12--12-12--9-9-|
D:---------------------------------10-10--10-10--12-12--12-12--9-9-|
end
for the solo the second guitar conts.
e:-------------------------------------------------------------|
b:-------------------------------------------------------------|
g:12-12-12-12-12-12-12-12-12-12-12-12-9-9-9-9-9-9-9-9-9-9-9-9--| x2
d:-------------------------------------------------------------|double picking
a:-------------------------------------------------------------|
D:-------------------------------------------------------------|

e:------------------------------------------------------------|
b:------------------------------------------------------------|
g:10-10-10-10-10-10-10-10-10-10-10-10-9-9-9-9-9-9-9-9-9-9-9-9-|
d:------------------------------------------------------------|double picking
a:------------------------------------------------------------|
D:------------------------------------------------------------|
comments
print report bad tab
28 comments total. Showing first comments.
0 reply
PinkIsCool 2,002 wrote on February 20 2007, 07:05 pm

Absolutely flawless. Good job.

+1 reply
GodofCheesecake 1,404 wrote on March 30 2007, 09:35 pm

that pulloff riff is awesome...

+2 reply
kmanpsycho 147 wrote on April 13 2007, 08:46 pm

you did a really good job at tabbing this one.

I want to post or [tab]
guest
You may want to rate the tab now too:
select rating
Please do not post tabs as comments. Select "correction" instead!