Oops, an error
Loading. Please wait.

Adventures Of Allan Gordan Bass Tab

version 1
version 1

Whole song

Interactive

1,162 views 3 this week
2 commentsread comments
1 2 3 4 5
please rate
add to favorites
launch autoscroll
font size
0
reset
guitar tuner
Autoscroll
slow
fast
+/-
esc
set tempo
stop
Help us to improve Ultimate-Guitar.com Take our survey!
×
Author
Difficulty
intro
G--------------16-16-------------16-16--16/17/16-----------]
D-14-14-14-----------14-14-14------------------------------]
A----------------------------------------------------------]
E----------------------------------------------------------]

verse
G--------------------------------------]
D--------------------------------------]
A--777--666-------55-------------------]
E---------------4----------------------]


chorus
G-------------------------------------------------------------------------------------]
D-------44-------44--------------44--------44-----------------------------------------]
A--22--------222----2------22--------222------2------77--55--2---77--55--2------------]
E-------------------------------------------------------------------------------------]

ending
G-----------------------------------------------------------------]last time]
D-----------------------------------------------------]-----------] ]
A-----------------------------------------------------]-----------]
E-22222222---33333333---22222222----777555--]-----2---------------]
Suggest correction
Give kudos to tab author, rate the tab!
1 2 3 4 5
comments
print report bad tab
2 comments total.
0 reply
Nick-182 10 wrote on January 1 2008, 11:08 am

wtf, this isnt right

0 reply
moggieman 10 wrote on August 12 2008, 01:22 pm

wow this is horrorbad.

guest
You may want to rate the tab now too:
select rating
Please do not post tabs as comments. Select "correction" instead!