Oops, an error
Loading. Please wait.

Adventures Of Allan Gordon Tab

version 1
version 1

Whole song

2,519 views 3 this week
3 commentsread comments
1 2 3 4 5
worth learning
x 5
add to favorites
launch autoscroll
font size
0
reset
how to read this tab
guitar tuner
Autoscroll
slow
fast
+/-
esc
set tempo
stop
Help us to improve Ultimate-Guitar.com Take our survey!
×
Author
------------------------------------------------------------------------------
       The Adventures of Allan Gordon - Fall Of Troy
-------------------------------------------------------------------------------
Tabbed by: Jordan E.
Email: InitialJRift@yahoo.com

Tuning: standard

these are most of the main parts to this song
 along with some of the fills in the back
:00
e|--------------------------------------------|
B|--------------------------------------------|
G|--------------------------------------------|
D|---------99--------9-9-9h10h9---------------|
A|--777-------777-----------------------------|
E|--------------------------------------------|
repeat this as many times as necessary

:19
e|------------------------------------|
B|------------------------------------|
G|------------------------------------|
D|---2-----let ring-------------------|
A|---2-----let ring-------------------|
E|---0--------------------------------|
:23 fill
e|------------------------------------------|
B|------------------------------------------|
G|---12^---9--------------9^----------------|
D|----------------12p9---12^----------------|
A|------------------------------------------|
E|------------------------------------------|
:27
e|------------------------------------------|
B|------------------------------------------|
G|------------------------------------------|
D|---9--3--5----2-----let ring--------------|
A|---9--3--5----2-----let ring--------------|
E|---7--5--3----0---------------------------|
:32
e|---------------------------------------------------|
B|---------------------------------------------------|
G|-12p10p9--12p10p9--12p10p9--12p10p9--12p10p9-------|
D|---------------------------------------------------|
A|---------------------------------------------------|
E|---------------------------------------------------|

e|-----------------------------------------------------------|
B|-----------------------------------------------------------|
G|--15p14h15p14h15p14h15p14-16^-/////------------------------|
D|-----------------------------------------------------------|
A|-----------------------------------------------------------|
E|-----------------------------------------------------------|
:37
e|-------------------------------------------|
B|-------------------------------------------|
G|-------------------------------------------|
D|--2---let ring-----------------------------|
A|--2---let ring-----------------------------|
E|--0----------------------------------------|
:53 this part is a bit tricky, i think some effects are used for this sound
along with sliding up and down the neck pretty quickly, but the sound is
somewhere around this:
e|-----16----------------------------------|
B|----16-----------------------------------|
G|---14------------------------------------|
D|-----------------------------------------|
A|-----------------------------------------|
E|-----------------------------------------|
1:01
e|---------------------------------------------------|
B|---------------------------------------------------|
G|---------------------------------------------------|
D|----8---6--2------x--x-----------------------------|
A|----8---6--2------x--x-----------------------------|
E|----6---4--0------x--x-----------------------------|
^^guitar 2 plays the fill from 53 seconds during this part
1:33
this is the verse part, the picking pattern is alternated but these
are the notes being played
e|--------------------------------------------------------|
B|--12--10--15-12---13-12-10---15-13-12---13-12-10--------|
G|--------------------------12---------------------12-----|
D|--------------------------------------------------------|
A|--------------------------------------------------------|
E|--------------------------------------------------------|

these are the main parts that make up the song, the ones stated above
are used again in after the verse.

| /  slide up
| \  slide down
| h  hammer-on
| p  pull-off
| ~  vibrato
| +  harmonic
| x  Mute note
=============================================
Suggest correction new What's this?
You can suggest a correction to this tab. Community and Mods will review your correction and vote to approve or reject it.
comments
print report bad tab
3 comments total.
0 reply
Raven91790 83 wrote on December 27 2005, 08:12 am

e|---------------------------------------------------|
B|---------------------------------------------------|
G|---------------------------------------------------|
D|----8---6--2------x--x-----------------------------|
A|----8---6--2------x--x-----------------------------|
E|----6---4--0------x--x-----------------------------|

e|---------------------------------------------------|
B|---------------------------------------------------|
G|---------------------------------------------------|
D|----9---6--2------x--x-----------------------------|
A|----9---6--2------x--x-----------------------------|
E|----7---4--0------x--x-----------------------------|

?

0 reply
Raven91790 83 wrote on December 27 2005, 08:14 am

e|---------------------------------------------------|
B|---------------------------------------------------|
G|---------------------------------------------------|
D|----8---6--2------x--x-----------------------------|
A|----8---6--2------x--x-----------------------------|
E|----6---4--0------x--x-----------------------------|

nvm It should be more like this i think

e|---------------------------------------------------|
B|---------------------------------------------------|
G|---------------------------------------------------|
D|----99---66--2------x--x-----------------------------|
A|----99---66--2------x--x-----------------------------|
E|----77---44--0------x--x-----------------------------|

+1 reply
jo3myster 680 wrote on April 12 2008, 01:24 pm

no it should be

|------------------|
|------------------|
|-5-5----------9-9-|
|-5-5--6-6--2--8-8-|
|-3-3--6-6--2--7-7-|
|------4-4--0------|

guest
You may want to rate the tab now too:
select rating
Please do not post tabs as comments. Select "correction" instead!