Oops, an error
Loading. Please wait.

Adventures Of Allan Gordon Tab

version 2
version 2

Whole song

1,463 views 1 this week
3 commentsread comments
1 2 3 4 5
accurate
x 4
add to favorites
launch autoscroll
font size
0
reset
how to read this tab
guitar tuner
Autoscroll
slow
fast
+/-
esc
set tempo
stop
Help us to improve Ultimate-Guitar.com Take our survey!
×
Author
Tuning: Standard
Tabbed by: Spencer Heath

Let me be the first to say that this isn't 100% correct, but considering that no one 
has put up a tab for the song I'm pretty satisfied with it.
If someone wants to use this tab to make a better version please do. And yes I realize I 
tell you when to go back and play a previous part, etc.
But if you can't figure that out on your own then why are you looking at Fall of 
Troy tabs anyway!?!

Intro Riff 0:00
e:--------------------------------------|
B:--------------------------------------|
G:--------------------------------------|
D:--------9-9---------9-9--9h10p9-------|
A:-7-7-7-------7-7-7--------------------|
E:--------------------------------------|x8

 0:19
e:
B:
G:
D:-2
A:-2
E:-0

0:23
e:------------------------|
B:------------------------|
G:-12b-9--------------9b--|
D:--------12-9-12----12b--|
A:------------------------|
E:------------------------|

0:27
e:-----------|
B:-----------|
G:-----------|
D:10-9-7-2---|
A:10-9-7-2---|
E:-8-7-5-0---|

0:32
e:------------------------------------------------------------------------|
B:------------------------------------------------------------------------|
G:12p10p9-12p10p9-12p10p9-12p10p9-12p10p9--15p14h15p14h15p14h15p1416b-----|
D:--------------------------------------------------------------------/-2-|
A:--------------------------------------------------------------------/-2-|
E:--------------------------------------------------------------------/-0-|

0:40
e:-----------------------------------------------------------------|
B:17p0-17p0-17p0-17p0-17p017p0--20p0-20p0-20p0-20p0-20p020p0-------|
G:-----------------------------------------------------------------|
D:-----------------------------------------------------------------|
A:-----------------------------------------------------------------|
E:-----------------------------------------------------------------|x3

0:53
e:--------11----12-----|
B:----16-----------16--|
G:-14--------14--------|
D:---------------------|
A:---------------------|repeat as necessary, Thomas uses a lot of effects right here
E:---------------------|

1:01
e:-----------------|
B:-----------------|
G:-------xx-7-7----|
D:-9-7-5-xx-7-7----|
A:-9-7-5-xx-5-5----|
E:-7-5-3-----------|x4

1:09
e:--------------------------------------------------------|
B:--------------------------------------------------------|
G:11/12-12--11/12-12--11/12-12---11/12-12--11/12-11/12----|
D:--------------------------------------------------------|
A:9-/10-10---9/10-10--9-/10-10---9-/10-10---9/10--9/10----|
E:--------------------------------------------------------|x2

1:13
e:repeat same progression as above^^
B:---------
G:14/15-15-
D:---------
A:12/13-13-
E:--------x2

Verse Riff:  1:33 (Thomas never plays it exactly the same way twice, so what I do is use 
notes and just play power chords following this pattern)
this [ ] note is only used the 1st time
e:-------------------------------------------------------------------|
B:12-10-15-[12]--13-12-10-----15-13-12--13-12-10-----15-13-12--------|
G:------------------------12---------------------12------------------|
D:-------------------------------------------------------------------|
A:-------------------------------------------------------------------|
E:-------------------------------------------------------------------|

Bridge: 3:01
e:-------------------------------------------------------------------------|
B:-------------------------------------------------------------------------|
G:1111---1111--1111--1111--111111--12-12--12-12--12-12-12-14-12---12-12-12-|
D:-x-x---x-x---x-x---x-x---x-x-x---x--x----x--x---x--x--x--x--x----x--x--x-|
A:-9-9---9-9---9-9---9-9---9-9-9---10-10--10-10--10-10-10-10-10---10-10-10-|
E:-------------------------------------------------------------------------|

Bridge Continued
e:---------------------------------------------8----8---8------------|
B:-----------------------------------------------8----8-----8--------|
G: 1111--1111---1111-1111--111111---9-9--9-9-------------------9-----|
D: -x-x---x-x---x-x---x-x---x-x-x---x-x--x-x-------------------------|
A: -9-9---9-9---9-9---9-9---9-9-9---7-7--7-7-------------------------|
E:-------------------------------------------------------------------|


Thats it....comments/corrections are always welcome
Suggest correction
What's this?
You can suggest a correction to this tab. Community and Mods will review your correction and vote to approve or reject it.
comments
print report bad tab
3 comments total.
0 reply
Joshua Hatten 12 wrote on December 3 2010, 08:34 pm

@ 00:27 I dunno if you thought he plays all those power chords really fast or something but I'm pretty sure its just a slide from the 12th fret on the bottom E back to the D|2---| power chord...
A|2---|
E|0---|

@ 00:32

e|--3p0-0-3p0-0-3p0-(etc.)--6p0h6p0h6p0h6p0h6/9--|
b|-----------------------------------------------|

@ 00:40
pretty sure its just something like this...

e|-15p0-0-15p0-(etc)-18p0-0-18p0-|
b|-------------------------------|

@ 00:53

e|-------14-------14| positive this is correct...
B|----16-------16---|
G|-17-------17------|

And that intro riff is actually played on the bass like so:

G|----------16--16----------16--16-16h17p16-| But yeah the
D|-14-14-14--------14-14-14-----------------| the exact same
A|------------------------------------------| notes that you
E|------------------------------------------| put

@ 1:01
Right guitar is just doing this

G|5-5-5-5-5-5-4---9-9
D|x-x-x-x-x-x-x---x-x
A|3-3-3-3-3-3-2---7-7
E|-------------------

Left guitar

G|5---5---------------
D|5---5-6---6-2-------
A|3---3-6---6-2-------
E|------4---4-0-------

@ 1:33 those notes are right but played as chords...

I should probably just make my own tab seeing as how there are no good ones... whoever rated this 5 stars obviously has no ear for correctness... good effort though man.

+1 reply
VHStudlite 49 wrote on October 25 2012, 01:17 pm

close, but no cigar. ^ is much closer.

-1 reply
VHStudlite 49 wrote on October 25 2012, 01:44 pm

i play:

0:23

e:--3~-0~--------------------|
B:--------h3p0h3--5~---------|
G:---------------------------|
D:---------------------------|
A:---------------------------|
E:---------------------------|

1:01 sounds more like:
G|5-----------------
D|5----6---9-------
A|3----6---9-------
E|-----4---7-------

guest
You may want to rate the tab now too:
select rating
Please do not post tabs as comments. Select "correction" instead!