Oops, an error
Loading. Please wait.

Battleship Graveyard Bass Tab

version 1
version 1

Whole song

Interactive

1,475 views 1 this week
1 commentread comment
1 2 3 4 5
accurate
x 5
add to favorites
launch autoscroll
font size
0
reset
guitar tuner
Autoscroll
slow
fast
+/-
esc
set tempo
stop
Help us to improve Ultimate-Guitar.com Take our survey!
×
Author
-------------------------------------------------------------------------------
		 Battleship Graveyard - The Fall Of Troy
-------------------------------------------------------------------------------

 Tabbed by:dvanwyk
 Email:dustinvanwyk@yahoo.com

 Tuning:Drop D

 Verse x2
G|---------------------------------------------------------------|
D|----4p0-2-4-----7-5-4-----4p0-2-4-----7-44---------------------|
A|2-2---------2-2-------2-2---------2-2--------------------------|
D|--------------------------------------------5-5--5-5--5-5------|

  x2
G|-----------------------------------------|
D|----------------5---5-7-8-7-5-4----------|
A|2222----2222------5-------------5--------|
D|----------------------------------0-0----|

 Pause

 Verse
 
 x4
G|-----------------------------------------|
D|----------------5---5-7-8-7-5-4----------|
A|2222----2222------5-------------5--------|
D|----------------------------------0-0----|

G|-----------------------------------------|
D|-----------------------------------------|
A|----------------------4---4---7----10----|
D|2----2----2----2----5---5---8---11-------|

 x2
G|--3---3p2p0---3----------3---3p2p0---3----------------------------|
D|------------------------------------------------------------------|
A|------------------------------------------------4---4---7----10---|
D|2---2-------2---2-000--2---2-------2---2-000--5---5---8---11------|

G|--3---3p2p0---3------------3---3p2p0---3---------------------------|
D|-------------------------------------------------------------------|
A|------------------------------------------------4---4---7----10----|
D|2---2-------2---2-0-0-0--2---2-------2---2----5---5---8---11-------|


G|---------------------------------------|
D|---------------------------------------|
A|-------------------------5-7--5-7------|
D|2---0-2---0~---2---0-2-----------------|

G|-----------------------------------------------------------------------------|
D|------------------------------------------7-----7-----7--------9-----4-----4-|
A|----------------------------5-7--5-7--999---999---999---101010---666---666---|
D|2---0-2---0-0-0---2---0-2----------------------------------------------------|

 Pause
 
 (2.42)
G|---------------------|
D|-------101010-9-9----|
A|666-6----------------|
D|---------------------|

 x2
G|------------------------4-2-----------------------|
D|-----7-9------12-10-----------------101010-9-9----|
A|7-10-----10~--------3~-------666-6----------------|
D|--------------------------------------------------|

G|---------------------------------------|
D|---------------------------------------|
A|-------------------------5-7--5-7------|
D|2---0-2---0~---2---0-2-----------------|

G|-----------------------------------------------------------------------------|
D|------------------------------------------7-----7-----7--------9-----4-----4-|
A|----------------------------5-7--5-7--999---999---999---101010---666---666---|
D|2---0-2---0-0-0---2---0-2----------------------------------------------------|

 
G|----------------------------------------------------------------|
D|--------9-7-------------9-7-------------------------------------|
A|7~-7-10-----10--7~-7-10-----1010----1010----1010----101010------|
D|---------------------------------12------12------12--------12---|

G|--------------------------------------------------------------------------------------|
D|99999999-7/999999999-7/9999999-7/99999999------------------88888888-------------------|
A|--------------------------------------------------------------------1010101010101010--|
D|------------------------------------------8888888888888888----------------------------|

G|-----------------------------------------------------|
D|-----------------------------------------5---5-9-5---|
A|-------------------------------------------7---------|
D|2-2-0-2-2-0-2-2-0-2-2--5-5-0-5-5-0-5-5-0-------------|

G|--------------------------------------------------------------------------------------|
D|99999999-7/999999999-7/9999999-7/99999999------------------88888888-------------------|
A|--------------------------------------------------------------------1010101010101010--|
D|------------------------------------------8888888888888888----------------------------|


 Verse

 x2
G|--------------------------------------------------------|
D|--------------------------------------------------------|
A|2-22-2-5p0-0--2-22-2-5p0-0--2-22-2-5p0-0--2-22----------|
D|-----------------------------------------------4-3-2----|

 x1
G|------------------------------------------------------------|
D|------------------------------------------------------------|
A|2-22-2-5p0-0--2-22-2-5p0-0--2-22-2-5p0-0--2-22--------------|
D|-----------------------------------------------4-3-2-0-2-0--|

G|-------------|
D|-------------|
A|2-2----------|
D|-------------|
Suggest correction
What's this?
You can suggest a correction to this tab. Community and Mods will review your correction and vote to approve or reject it.
comments
print report bad tab
1 comment total.
0 reply
sen2008 119 wrote on April 3 2012, 07:05 pm

So, my personal thoughts on this tab. It's pretty good, but not deserving of 5 stars. Where it has listed
G|----------------------------|
D|--------9-7-------------9-7-|
A|7~-7-10-----10--7~-7-10-----|
D|----------------------------|

This sounds off and is just wrong, but the rest of that part sounds fine. I don't know what is correct, I usually just wing that. The other issue I have is at the very end, the last repeat should not have the last 2-22 on the A. That throws me off every time and is not part of the song. It should be as follows.

G|-----------------------------------------------------|
D|-----------------------------------------------------|
A|2-22-2-5p0-0--2-22-2-5p0-0--2-22-2-5p0-0-------------|
D|------------------------------------------4-3-2-0-2-0|

G|-------------|
D|-------------|
A|2-2----------|
D|-------------|
Perfect tab otherwise.

guest
You may want to rate the tab now too:
select rating
Please do not post tabs as comments. Select "correction" instead!