Oops, an error
Loading. Please wait.

Caught Up Tab

version 1
version 1

Whole song

Interactive

27,006 views 9 this week
2 commentsread comments
1 2 3 4 5
x 5
add to favorites
launch autoscroll
font size
0
reset
how to read this tab
guitar tuner
Autoscroll
slow
fast
+/-
esc
set tempo
stop
Help us to improve Ultimate-Guitar.com Take our survey!
×
Difficulty
intermediate
***Note: strumming is not displayed here. These are just the chords to play, you can figure out the rest***

Verse
E--7---7---8---7---3---2---0--------3---0---0---0---3---2---0---]
B--8---7---8---7---0---0---0--------3---1---8--10---0---0---0---]
G--7---8---9---7---3---2---0--------0---3---9--12---3---2---0---]
D--9---9--10---9---2---1---2--------0---2--10--13---2---1---2---]
A------------------3---2---2--------2---------------3---2---2---]
E--------------------------0-0-2-3--3-----------------------0---]

Chorus
E--7---5--10/12--10--55---5-7-8-----------
B--8---7--10/12--10--55---5-5-5---8--10---
G--9---7------------------5-5-5---7---9---
D-10---7------------------7-7-7---9--10---
A--0--------------------------------------
E-----------------------------------------

Chorus (cont'd)
E--7---5--10/12--10--55---3---2---0---]
B--8---7--10/12--10--55---0---0---0---]
G--9---7------------------3---2---0---]
D-10---7------------------2---1---2---]
A--0----------------------3---2---2---]
E---------------------------------0---]

Verse
E--7---7---8---7---3---2---0--------3---0---0---0---3---2---0---]
B--8---7---8---7---0---0---0--------3---1---8--10---0---0---0---]
G--7---8---9---7---3---2---0--------0---3---9--12---3---2---0---]
D--9---9--10---9---2---1---2--------0---2--10--13---2---1---2---]
A------------------3---2---2--------2---------------3---2---2---]
E--------------------------0-0-2-3--3-----------------------0---]

Chorus
E--7---5--10/12--10--55---5-7-8-----------
B--8---7--10/12--10--55---5-5-5---8--10---
G--9---7------------------5-5-5---7---9---
D-10---7------------------7-7-7---9--10---
A--0--------------------------------------
E-----------------------------------------

Chorus (cont'd)
E--7---5--10/12--10--55---3---2---0---]
B--8---7--10/12--10--55---0---0---0---]
G--9---7------------------3---2---0---]
D-10---7------------------2---1---2---]
A--0----------------------3---2---2---]
E---------------------------------0---]

Bridge
E--12---7---5---3---2---12---7---5---3---2---]
B--xx---7---5---0---0---xx---7---5---0---0---]
G--12---7---5---3---2---12---7---5---3---2---]
D--10---9---7---2---1---10---9---7---2---1---]
A--12-----------3---2---12-----------3---2---]
E--------------------------------------------]

Ending (repeated)
E--0-------0---2---]
B--0-------0---0---]
G--0---0---0---2---]
D--2---0---2---1---]
A--2---2---2---2---]
E--0---3---0-------]
Suggest correction
comments
print report bad tab
2 comments total.
0 reply
MCRrocks 35 May 12, 2007 12:01 AM

you're missing the essential bass notes in a few chords, other than that very nice

0 reply
domguitar 10 Jun 26, 2008 04:00 PM

 Verse
E--7---7---8---7---3---2---0--------3---5---3---5---3---2---0---]
B--8---7---8---7---3---0---0--------3---5---3---5---3---0---0---]
G--7---8---9---7---3---2---0--------0---5---4---5---3---2---0---]
D--9---9--10---9---2---1---2--------0---7---2---4---2---1---2---]
A------------------3---2---2--------2---0-------5---3---2---2---]
E--------------------------0-0-2-3--3-----------------------0---]

Chorus
E--7---5--10/12--10--55---5-7-8---7---5---
B--8---7--10/12--10--55---5-5-5---8---5---
G--9---7------------------5-5-5---7---5---
D-10---9------------------7-7-7---9---4---
A--X---X--------------------------7---5---
E--8---7----------------------------------

Chorus (cont'd)
E--7---5--10/12--10--55---3---2---0---]
B--8---7--10/12--10--55---3---0---0---]
G--9---7------------------3---2---0---]
D-10---9------------------2---1---2---]
A--x---x------------------3---2---2---]
E--8---7--------------------------0---]

guest
You may want to rate the tab now too:
select rating
Wanna post a correction for this tab? Suggest correction