Oops, an error
Loading. Please wait.

Caught Up Tab

version 2
version 2

Whole song

Interactive

14,793 views 3 this week
10 commentsread comments
1 2 3 4 5
accurate
x 10
add to favorites
launch autoscroll
font size
0
reset
how to read this tab
guitar tuner
Tab Pro tools
  • play this tab
  • loop segment
  • change instrument
  • show fretboard
  • metronome
Autoscroll
slow
fast
+/-
esc
set tempo
stop
Contributor
Difficulty
novice
Caught Up- The Fall of Troy


Almost 100% perfect. It may need a few tweaks. Look it up on youtube and decipher
it yourselves. Heres how i like to play it.

tabbed by- calebd

 calebd1837@comcast.net

e|---------7---7---8---7-----3--2--0-------------3--x--x--5--3--2--0---------|
B|---------8---7---8---7-----x--x--0-------------3--5--8--5--x--x--0---------|
G|---------7---8---9---7-----3--2--0-------------0--5--7--4--3--2--0---------|
D|---------9---9---10--9-----2--1--2-------------0--4--5--5--2--1--2---------|
A|----10--10---10--11--10----3--2--2-------------2--5--7--x--3--2--2---------|
E----------x----x---x--x-----x--x--0------0-2-3--3--x--x--x--x--x--0---------|


e|-7---7--10s12s10--5--5--7--8-----5----7---7--10s12s10--5---3--2--0---------|
B|-8---7--10s12s10--5--5--5--5--8--5----8---7--10s12s10--5---x--x--0---------|
G|-9---7---------------5--5--5--7--4----9---7----------------3--2--0---------|
D|-10--6---------------7--7--7--5--5----10--6----------------2--1--2---------|
A|-----7------------------------7-----------7----------------3--2--2---------|
E|-----------------------------------------------------------x--x--0---------|

e|---------7---7---8---7-----3--2--0-------------3--x--x--5--3--2--0---------|
B|---------8---7---8---7-----x--x--0-------------3--5--8--5--x--x--0---------|
G|---------7---8---9---7-----3--2--0-------------0--5--7--4--3--2--0---------|
D|---------9---9---10--9-----2--1--2-------------0--4--5--5--2--1--2---------|
A|----10--10---10--11--10----3--2--2-------------2--5--7--x--3--2--2---------|
E----------x----x---x--x-----x--x--0------0-2-3--3--x--x--x--x--x--0---------|


e|-7---7--10s12s10--5--5--7--8-----5--7---7--10s12s10--5---3--2--0-----------|
B|-8---7--10s12s10--5--5--5--5--8--5--8---7--10s12s10--5---x--x--0-----------|
G|-9---7---------------5--5--5--7--4--9---7----------------3--2--0-----------|
D|-10--6---------------7--7--7--5--5--10--6----------------2--1--2-----------|
A|-----7------------------------7---------7----------------3--2--2-----------|
E|---------------------------------------------------------x--x--0-----------|


e|--12----x----x---x--x---0-----12---x----x---x--x---0--0--0--x--x---0--0--0-|
B|--12----12---x---x--x---0-----12---12---x---x--x---0--0--0--x--x---0--0--0-|
G|--12----12---11--3--2---0-----12---12---11--3--2---0--0--0--3--2---0--0--0-|
D|--10----12---10--2--1---2-----10---12---10--2--1---2--2--2--2--1---2--2--2-|
A|--12----10----9--3--2---2-----12---10----9--3--2---2--2--2--3--2---2--2--2-|
E|---x----12---10--x--x---0------x---12---10--x--x---0--3--0--x--x---0--3--0-|


                               
e|---x--x---0--0--0---x--x----0--0--0--x--x-----------------------0~----------|
B|---x--x---0--0--0---x--x----0--0--0--x--x-------------------0~--------------|
G|---3--2---0--0--0---3--2----0--0--0--3--2---------------0~------------------|
D|---2--1---2--2--2---2--1----2--2--2--2--1-----------4~----------------------|
A|---3--2---2--2--2---3--2----2--2--2--3--2-------2~--------------------------|
E|---x--x---0--3--0---x--x----0--3--0--x--x----0~-----------------------------|
comments
print report bad tab
10 comments total. Showing first comments.
0 reply
matddors wrote on June 9 2007, 04:32 pm

everything is perfect except that one the 11th fret on the A string during the intro

-2 reply
I floss daily wrote on August 4 2007, 10:04 am

And also the fact the like 40% of the chords are wrong.

0 reply
and1streeter wrote on August 17 2007, 09:28 pm

your not playin it right if your think 40% of the chords are wrong..

good tab mate!

I want to post or [tab]
guest
You may want to rate the tab now too:
select rating
Please do not post tabs as comments. Select "correction" instead!