Oops, an error
Loading. Please wait.

Caught Up Tab

version 3
version 3

Whole song

Interactive

3,141 views 3 this week
1 commentread comment
1 2 3 4 5
please rate
add to favorites
launch autoscroll
font size
0
reset
how to read this tab
guitar tuner
Autoscroll
slow
fast
+/-
esc
set tempo
stop
Help us to improve Ultimate-Guitar.com Take our survey!
×
Author
Well, this is my first shot at writing out a tab, and this is one of my favorite songs.

There's good tabs, but they don't quite get it right on the nail. So using other tabs 
Youtube as a reference,
I'm 98% sure this is on the ball.


e|---------7----7----8----7----3----2----0----|
B|---------8----7----8----7----0----0----0----|
G|---------7----8----9----8----3----2----0----|
D|---------9----9----10---9----2----1----2----|
A|----10--10----9----10---9----3----2----2----|
E|-----------------------------x----x----0----|
"Too done up, I've said too much..."


e|---------3---x---x---5---3---2---0---------|
B|---------3---5---8---x---0---0---0---------|
G|---------0---4---7---5---3---2---0---------|
D|---------0---5---5---4---2---1---2---------|
A|---------2---x---7---5---3---2---2---------|
E|--0-2-3--3---5---x---x---x---x---0---------|
"All because, people don't learn..."


e|--7---5--10/12-10--5---5--5-7-8--x--x---|
B|--8---0--10/12-10--5---5--5-5-5--8--7---|
G|--9---7----------------5--5-5-5--7--5---|
D|--10--7----------------7--7-7-7--5--4---|
A|--0---x--------------------------7--5---|
E|------7--------------------------x--x---|
"Better kept secret, waiting on a better day."


e|--7---7--10/12-10--5---3---2---0---------|
B|--8---7--10/12-10--5---x---x---0---------|
G|--9---7----------------3---2---0---------|
D|--10--6----------------2---1---2---------|
A|--0---7----------------3---2---2---------|
E|-----------------------x---x---0---------|
"When everything is self-destructive, I can't explain myself anyway."


e|---------7----7----8----7----3----2----0----|
B|---------8----7----8----7----0----0----0----|
G|---------7----8----9----8----3----2----0----|
D|---------9----9----10---9----2----1----2----|
A|----10--10----9----10---9----3----2----2----|
E|-----------------------------x----x----0----|
"So I'll make my apologies, just as soon.."


e|---------3---x---x---5---3---2---0---------|
B|---------3---5---8---x---0---0---0---------|
G|---------0---4---7---5---3---2---0---------|
D|---------0---5---5---4---2---1---2---------|
A|---------2---x---7---5---3---2---2---------|
E|--0-2-3--3---5---x---x---x---x---0---------|
"It's as bad as bad can get, is.."


e|--7---5--10/12-10--5---5--5-7-8--x--x---|
B|--8---0--10/12-10--5---5--5-5-5--8--7---|
G|--9---7----------------5--5-5-5--7--5---|
D|--10--7----------------7--7-7-7--5--4---|
A|--0---x--------------------------7--5---|
E|------7--------------------------x--x---|
"Better kept secret, waiting on a better day."

e|--7---7--10/12-10--5---3---2---0---------|
B|--8---7--10/12-10--5---x---x---0---------|
G|--9---7----------------3---2---0---------|
D|--10--6----------------2---1---2---------|
A|--0---7----------------3---2---2---------|
E|-----------------------x---x---0---------|
"When everything is self-destructive, I can't explain myself anyways."


e|--12-----x----x---3---2-----12---x----x---x--x--|
B|---0----12---10---0---0-----12---12---x---x--x--|
G|--12-----x----x---3---2-----12---12---11--3--2--|
D|--10----12---10---2---1-----10---12---10--2--1--|
A|--12-----x----x---3---2-----12---10----9--3--2--|
E|---x----12---10---0---0------x---12---10--x--x--|
"If I could, you know I would, hypocrisy that's understood..."


e|-0--0--0--x--x-----|
B| -0--0--0--x--x----|
G|-0--0--0--3--2-----| x4
D|-2--2--2--2--1-----|
A|-2--2--2--3--2-----|
E|-0--3--0--x--x-----|
"I'm caught up..."

e|---------------------0~----------|
B|-----------------0~--------------|
G|-------------0~------------------|
D|---------4~----------------------|
A|-----2~--------------------------|
E|--0~-----------------------------|


Too done up, I've said too much,
It always seems like I do.
All because people don't learn,
They'd much rather teach the truth.

Better kept secret,
Waiting on a better day.
When everything is self-destructive,
I can't explain myself anyway.

So I'll make my apologies.
Just as soon as you turn away,
It's as bad as bad can get.
Is anyone listening?

Better kept secret,
Waiting on a better day.
When everything is self-destructive,
I can't explain myself anyway.

If I could, you know I would,
Hypocrisy that's understood.
It's meaningless at best,
Nothing's making sense.

Here right now I'll put this down,
To pull you in and hear the sound.
A living silhouette with nothing to give back.

I'm caught up...
Suggest correction
What's this?
You can suggest a correction to this tab. Community and Mods will review your correction and vote to approve or reject it.
comments
We did not receive enough feedback on this tab! Please rate:
print report bad tab
1 2 3 4 5
1 comment total.
0 reply
GODhimself37 1,756 wrote on June 10 2009, 03:19 pm

i gave it five starts cuz its basically like the others but more cleaned up.

guest
You may want to rate the tab now too:
select rating
Please do not post tabs as comments. Select "correction" instead!