Oops, an error
Loading. Please wait.

Caught Up Tab

version 4
version 4

Whole song

Interactive

31,430 views 54 this week
14 commentsread comments
1 2 3 4 5
excellent!
x 21
add to favorites
launch autoscroll
font size
0
reset
how to read this tab
guitar tuner
Tab Pro tools
  • play this tab
  • loop segment
  • change instrument
  • show fretboard
  • metronome
Autoscroll
slow
fast
+/-
esc
set tempo
stop
Contributor
Created by: GODhimself37
Email: godhimself210@yahoo.com
Song: Caught Up
Band: The Fall of Troy

This is the correct one. The other ones were close, but never fully right.
I got too lazy to add how many times you hit each chord, but if you don’t even know, 
why the hell are you even looking at this tab?
Anyways I also added in the single notes he puts in between the chords that adds depth 
the song.
Something I don’t think other tabbers did.


e|-x-x-x--------7-----7-------8-----7-----3-----2----0----|
B|-x-x-x--------8-----7-------8-----7-----x-----x----0----|
G|-x-x-x--------0-----8-------9-----8-----3-----2----0----|
D|-x-x-x--------9-----9------10-----9-----2-----1----2----|
A|-x-x-x---10--10--9--9--10--10--9--9--3--3--2--2----2----|
E|-x-x-x----------------------------------x-----x----0----|
              "Too done up, I've said too much..."


e|---------3-----x-----x-----5-----3-----2----0---------|
B|---------3-----5-----8-----x-----x-----x----0---------|
G|---------0-----4-----7-----5-----3-----2----0---------|
D|---------0-----5-----5-----4-----2-----1----2---------|
A|---------2-----x--7--7--5--5--3--3--2--2----2---------|
E|--0-2-3--3--5--5-----x-----x-----x-----x----0---------|
          "All because, people don't learn..."


e|--7---5--10/12-10--5--x-5--5-7-8--x--5---------|
B|--8---0--10/12-10--5--x-5--5-5-5--8--x---------|
G|--9---7---------------x-5--5-5-5--7--5---------|
D|--10--7---------------x-7--7-7-7--5--4---------|
A|--0---x---------------------------7--5---------|
E|--8---7---------------------------x--x---------|
                        ^
     (You can barely hear it, but it’s there)

 "Better kept secret, waiting on a better day."


e|--7---7--10/12-10--5---3---2---0---------|
B|--8---x--10/12-10--5---x---x---0---------|
G|--9---7----------------3---2---0---------|
D|--10--6----------------2---1---2---------|
A|--0---7----------------3---2---2---------|
E|--8---x----------------x---x---0---------|
"When everything is self-destructive, I...”


e|--------7-----7-------8-----7-----3-----2----0----|
B|--------8-----7-------8-----7-----x-----x----0----|
G|--------0-----8-------9-----8-----3-----2----0----|
D|--------9-----9------10-----9-----2-----1----2----|
A|---10--10--9--9--10--10--9--9--3--3--2--2----2----|
E|----------------------------------x-----x----0----|
        "So I'll make my apologies, just as soon.."


e|---------3---x---x---5---3---2---0---------|
B|---------3---5---8---x---x---x---0---------|
G|---------0---4---7---5---3---2---0---------|
D|---------0---5---5---4---2---1---2---------|
A|---------2---x---7---5---3---2---2---------|
E|--0-2-3--3---5---x---x---x---x---0---------|
      "It's as bad as bad can get, is.."


e|--7---5--10/12-10--5--x-5--5-7-8--x--5---------|
B|--8---0--10/12-10--5--x-5--5-5-5--8--x---------|
G|--9---7---------------x-5--5-5-5--7--5---------|
D|--10--7---------------x-7--7-7-7--5--4---------|
A|--0---x---------------------------7--5---------|
E|--8---7---------------------------x--x---------|
     "Better kept secret, waiting on a better day."


e|--7---7--10/12-10--5---3---2---0---------|
B|--8---x--10/12-10--5---x---x---0---------|
G|--9---7----------------3---2---0---------|
D|--10--6----------------2---1---2---------|
A|--0---7----------------3---2---2---------|
E|--8---x----------------x---x---0---------|
    "When everything is self-destructive, I..."


e|--12-----x----x---3---3-----12----x----x---3--2--|
B|---x----12---10---x---x------x---12---10---x--x--|
G|--12-----x----x---3---2-----12----x----x---3--2--|
D|--10----12---10---2---1-----10---12---10---2--1--|
A|--12----10----8---3---2-----12---10----8---3--2--|
E|---x----12---10---x---x------x---12---10---x--x--|
                          ^^^
      (you can slide to this, it makes it easier)

   "If I could, you know I would, hypocrisy that's understood..."


e|-0--0--0--x--x-----|
B|-0--0--0--x--x-----|
G|-0--0--0--3--2-----| x4
D|-2--2--2--2--1-----|
A|-2--2--2--3--2-----|
E|-0--3--0--x--x-----|
"I'm caught up..."

e|---------------------0~----------|
B|-----------------0~--------------|
G|-------------0~------------------|
D|---------4~----------------------|
A|-----2~--------------------------|
E|--0~-----------------------------|


LYRICS

Too done up, I've said too much,
It always seems like I do.
All because people don't learn,
They'd much rather teach the truth.

Better kept secret,
Waiting on a better day.
When everything is self-destructive,
I can't explain myself anyway.

So I'll make my apologies.
Just as soon as you turn away,
It's as bad as bad can get.
Is anyone listening?

Better kept secret,
Waiting on a better day.
When everything is self-destructive,
I can't explain myself anyway.

If I could, you know I would,
Hypocrisy that's understood.
It's meaningless at best,
Nothing's making sense.

Here right now I'll put this down,
To pull you in and hear the sound.
A living silhouette with nothing to give back.

I'm caught up...
I'm caught up...
I'm caught up...
comments
print report bad tab
14 comments total. Showing first comments.
+1 reply
andrew12398 wrote on September 9 2009, 09:37 pm

Definitely the best one

+2 reply
Dainjh wrote on September 13 2009, 02:31 am

yes, definatly the most accurate one on here.
but if i could just add one thing, on the very first chord, Thomas plays the G string open.
also, thomas uses his thumb on the 8th fret on the E string on this chord
e|--7---
B|--8---
G|--9---
D|--10--
A|--0---
E|------

other than that, awesome job (:

0 reply
GODhimself37 wrote on September 14 2009, 05:22 pm

ok, i will fix the mistakes. i know thomas teaches you, so yeah

I want to post or [tab]
guest
You may want to rate the tab now too:
select rating
Please do not post tabs as comments. Select "correction" instead!