Oops, an error
Loading. Please wait.

Caught Up Tab

version 5
version 5

Whole song

Interactive

2,022 views 9 this week
no commentswrite comment
1 2 3 4 5
3 more votes to show rating
add to favorites
launch autoscroll
font size
0
reset
how to read this tab
guitar tuner
Autoscroll
slow
fast
+/-
esc
set tempo
stop
Help us to improve Ultimate-Guitar.com Take our survey!
×
Author
Difficulty
intermediate
This is my first tab. Thanks for enjoying!
Have fun!

e|-x-x-x-----7----7----8----7----3---2---0-------3-----------5---3---2---0--|
B|-x-x-x-----8----7----8----7----x---x---0-------3-------8---x---x---x---0--|
G|-x-x-x-----x----8----9----7----3---2---0-------0---5---7---5---3---2---0--|
D|-x-x-x-----9----9----10---9----2---1---2-------0---5---5---4---2---1---2--|
A|-x-x-x-----10---9----10---10---3---2---2-------2---3---7---5---3---2---2--|
E|-x-x-x---------------------------------0---2---3---5-------------------0--|


e|-7----5---10/12--10--5---5-7-8-------5---7----5---10/12--10--5--3---2---0--|
B|-8----x---10/12--10--5---5-5-5---8---x---8----x---10/12--10--5--x---x---0--|
G|-9----7--------------5---5-5-5---7---5---9----7--------------5--3---2---0--|
D|-10---7------------------7-7-7---5---4---10---7-----------------2---1---2--|
A|------x--------------------------7---5--------x-----------------3---2---2--|
E|------7---------------------------------------7-------------------------0--|

e|-7----7----8----7----3---2---0-------3-----------5---3---2---0----------|
B|-8----7----8----7----x---x---0-------3-------8---x---x---x---0----------|
G|-x----8----9----7----3---2---0-------0---5---7---5---3---2---0----------|
D|-9----9----10---9----2---1---2-------0---5---5---4---2---1---2----------|
A|-10---9----10---10---3---2---2-------2---3---7---5---3---2---2----------|
E|-----------------------------0---2---3---5-------------------0----------|


e|-7----5---10/12--10--5---5-7-8-------5---7----5---10/12--10--5--3---2---0--|
B|-8----x---10/12--10--5---5-5-5---8---x---8----x---10/12--10--5--x---x---0--|
G|-9----7--------------5---5-5-5---7---5---9----7--------------5--3---2---0--|
D|-10---7------------------7-7-7---5---4---10---7-----------------2---1---2--|
A|------x--------------------------7---5--------x-----------------3---2---2--|
E|------7---------------------------------------7-------------------------0--|

e|-12-------------3---2----12-------------2---2---|-0--0--0--3--2--do-------|
B|-x----12---10---x---x----x----12---10---x---x---|-0--0--0--x--x--this-----|
G|-12---x----x----3---2----12---x----x----3---2---|-0--0--0--3--2--part-----|
D|-10---12---10---2---1----10---12---10---2---1---|-2--0--2--2--1--four-(4)-|
A|-12---10---9----3---2----12---10---9----3---2---|-2--2--2--3--2--times----|
E|------12---10-----------------12---10-----------|-0--3--0-----------------|

end on:

e|-------0~~-|
B|------0~~--|
G|-----0~~---|
D|----4~~----|
A|---2~~-----|
E|--0~~------|
Suggest correction
Give kudos to tab author, rate the tab!
1 2 3 4 5
comments
print report bad tab
guest
You may want to rate the tab now too:
select rating
Wanna post a correction for this tab? Suggest correction