Oops, an error
Loading. Please wait.

Chapter I Introverting Dimensions Bass Tab

1,947 views 9 this week
1 commentread comment
1 2 3 4 5
3 more votes to show rating
add to favorites
launch autoscroll
font size
0
reset
guitar tuner
Autoscroll
slow
fast
+/-
esc
set tempo
stop
Help us to improve Ultimate-Guitar.com Take our survey!
×
Author
-------------------------------------------------------------------------------
	   Chapter I  Introverting Dimensions - The Fall Of Troy
-------------------------------------------------------------------------------

 Tabbed by:dvanwyk
 Email:dustinvanwyk@yahoo.com

 Tuning:Standard

 Intro (0.44- 2.33)
G|----5-----5-----5------|
D|--7-----7-----7---6~---|
A|0-----0-----0----------|
E|-----------------------|

 x2
G|------------5------------------------------5----------------------------|
D|-----7-------------7----------------7-------------7--10----------9-10---|
A|-------6-66---------------------------6-66--------------12-11-12--------|
E|5-55----------5-55----(Pause)--5-55----------5-55-----------------------|

G|----------|
D|----------|
A|12~-------|
E|----------|

 Verse x2
G|----------------------------------------|
D|5/7-10~-7-10--5/7-9-10-9----9-----------|
A|--------------------------6---666-66-6--|
E|----------------------------------------|


G|----------12-10-9----4-------------|
D|5/7-10~-9----------------9---------|
A|-----------------------6---6-666-6-|
E|-------------------4---------------|

 Chorus x2
G|------------5------------------------------5----------------------------|
D|-----7-------------7----------------7-------------7--10----------9-10---|
A|-------6-66---------------------------6-66--------------12-11-12--------|
E|5-55----------5-55----(Pause)--5-55----------5-55-----------------------|

 Verse x2

 Chorus

 Bridge (4.32 - 5.02)
G|--------------------|
D|7-7-7-7-8-8-8-8-----|
A|--------------------|
E|0-0-0-0-0-0-0-0-----|

G|-------|
D|-------|
A|/8~----|
E|-------|

 x3
G|-------------------------------|
D|-------------------------------|
A|-------------------------------|
E|5-0-5-0-5-0-5--6-0-6-0-6-0-6---|

 x1
G|------------------------------------------|
D|------------------------------------------|
A|------------------------------------------|
E|5-0-5-0-5-0-5--6-6-6-6-6-6-6-6-6-6-6-6-6--|


 x8
G|------------------|
D|------------------|
A|--7---------------|
E|5---6--5-6--------|

 Pause

G|------------|
D|------------|
A|------------|
E|2-2-2-------|

 Pause

 (6.03)
G|---------------------|
D|---------------------|
A|---------------------|
E|6-5--2--2--2--2------|

 x4
G|-------------------------------------------------------------|
D|-------------------------------------------------------------|
A|6p0------------------------------6p0-------------------------|(NB:Listen for the timing Changes)
E|----6p5-5p0-3p0-6p5-0-5-6-8-6-5------6p5-5p0-3p0-6p5-2-2-2---|

G|--------------------|
D|--------------------|
A|--------------------|
E|2--2--2--2--2-0~----|

 Pause

 (8.02)
G|---------------------------------|
D|-----------------7-5-------------|
A|7~----------5~-------7~----------|
E|------8~-------------------------|

G|-------------------------------------------------------|
D|------9-----------10/12--------------------------------|
A|7--77---7-7-------------10--5-5-5-5-7777777777777777---|
E|-------------8--8--------------------------------------|

 x2
G|---------------------------------------------------------------------|
D|---------------------------------------------------------------------|
A|7777777777777777------------------5555555555555555-7777777777777777--|
E|-----------------8888888888888888------------------------------------|

G|------------------------|
D|------------------------|
A|7~----------5~----7~----|
E|------8~----------------|

 Pause

 (10.06)
G|------------------------------------------------------------------|
D|------------------------------------------------------------------|
A|------------------------------------------------------------------|
E|5----5----5-55---5---5-55---5----55---5-5---5-55--55---55--5--5---|
Suggest correction
Give kudos to tab author, rate the tab!
1 2 3 4 5
comments
print report bad tab
1 comment total.
+1 reply
mike_biro727 154 Mar 13, 2010 08:30 PM

so the breakdown is actually

G|-----------------------------------------------------------|
D|-----------------------------------------------------------|
A|6-0-----------------------------6-0------------------------|
E|----6-5-0-3-0-6-5-0-5-6-8-6-5-0-----6-5-0-3-0-6-5-0-2~2~2~-|

thats the slow part just speed it up and change the low f#s accordingly

guest
You may want to rate the tab now too:
select rating
Wanna post a correction for this tab? Suggest correction