Oops, an error
Loading. Please wait.

Chapter Iii Nostalgic Mannerisms Bass Tab

2,118 views 1 this week
4 commentsread comments
1 2 3 4 5
please rate
add to favorites
launch autoscroll
font size
0
reset
guitar tuner
Autoscroll
slow
fast
+/-
esc
set tempo
stop
Help us to improve Ultimate-Guitar.com Take our survey!
×
Author
Band: The Fall Of Troy
Song: Chapter III: Nostalgic Mannerisms
Album: Phantom on the Horizon
Tabbed by: -Joe-
Standard Tuning: EADG

Please Note: This is mostly from the Hurley Version of Chapter III.
I was able to see the positions of where the notes were and hear the notes from this version.
It sounds mostly like the actual recording.
Give it a try if their's a part that sounds wrong let me know.
I'll patch it up. Comment it and tell me what you think.

My tab to me sounds really accurate. But to some it might not.

Anyways Enjoy.

[0:00-0:21]
G|-----------------------------|----------------|----------------------------|
D|-----------------------------|---999999999----|----------------------------|
A|-10/12\10-------10/12\10-----|----------------|-10/12\10-------10/12\10----|
E|-----------0-8-----------0-8-|----------------|-----------0-8----------0-8-|

G|-----------------------------------------|
D|-------------------------------5-5--4----|
A|-7\-------7------7--------5-5------------|
E|-----0-0----00-0-----3-3-----------------|

G|-----------------------------|--------------------|----------------------------|
D|-----------------------------|---999999x999999----|----------------------------|
A|-10/12\10-------10/12\10-----|--------------------|-10/12\10-------10/12\10----|
E|-----------0-8-----------0-8-|--------------------|-----------0-8----------0-8-|

G|-----------------------------------------|
D|-------------------------------5-5--4----|
A|-7\-------7------7--------5-5------------|
E|-----0-0----00-0-----3-3-----------------|

[0:22-0:42]
G|----7-7-9------5-4-------------------------5---|
D|-----------3-3----------5---------7---5h7------|     x2
A|--------------------3-3---3---5-5--------------|
E|--5--------------------------------------------|

[0:43-0:59]
G|----------------5------------------5----|---------------5------------------5-----|
D|--------------5---5--------------5---5--|-------------3---5--------------5---5---|
A|--0-0-0-0-0-3------------------3--------|-0-0-0-0-0-3-----------------3----------|
E|---------------------1-1-1-1-1----------|-------------------1-1-1-1-1------------|

G|-----------------------------------|
D|-----------------------------------|	x2
A|--0-0-3-33333-888888888-5h7h5--3---|
E|-----------------------------------|

[1:00-1:21]
G|----7-7-9------5-4-------------------------5---|
D|-----------3-3----------5---------7---5h7------|     x2
A|--------------------3-3---3---5-5--------------|
E|--5--------------------------------------------|

[1:22-1:38]
G|----------------5------------------5----|---------------5------------------5-----|
D|--------------5---5--------------5---5--|-------------3---5--------------5---5---|
A|--0-0-0-0-0-3------------------3--------|-0-0-0-0-0-3-----------------3----------|
E|---------------------1-1-1-1-1----------|-------------------1-1-1-1-1------------|

G|-----------------------------------|
D|-----------------------------------|	x2
A|--0-0-3-33333-888888888-5h7h5--3---|
E|-----------------------------------|

[1:39-2:25]
G|---------------------------------|
D|---------------------------------|   
A|-777-777-777-777-777-777-777-777-|
E|-000-000-000-000-000-000-000-000-|

G|-----------------------|
D|-----------------------|    x8
A|--7-7-7-7-7-7-7-7-\14--|
E|--0-0-0-0-0-0-0-0-\0---|

[2:26-3:25]
This Sounds More Correctly. Try both Parts out.
G|---9-9-9-9-9-9-8-8-|-9-9-9-9-9-9-8-8-|-5-5-5-5-5-5-4-4-|-5-5-5-5-7-7-7-7-|
D|---x-x-x-x-x-x-x-x-|-x-x-x-x-x-x-x-x-|-x-x-x-x-x-x-x-x-|-x-x-x-x-x-x-x-x-|	x2
A|---7-7-7-7-7-7-6-6-|-7-7-7-7-7-7-6-6-|-3-3-3-3-3-3-2-2-|-3-3-3-3-5-5-5-5-|
E|-------------------|-----------------|-----------------|-----------------|

Slower
G|---9-9-9-9-9-9-8-8-|-9-9-9-9-9-9-8-8-|-5-5-5-5-5-5-4-4-|-5-5-5-5-7-7-\17-17/9|
D|---x-x-x-x-x-x-x-x-|-x-x-x-x-x-x-x-x-|-x-x-x-x-x-x-x-x-|-x-x-x-x-x-x-\x---x/x|	
A|---7-7-7-7-7-7-6-6-|-7-7-7-7-7-7-6-6-|-3-3-3-3-3-3-2-2-|-3-3-3-3-5-5-\15-15/7|
E|-------------------|-----------------|-----------------|---------------------|

[Optional]
G|---9-9-9-9-9-9-8-8-|-9-9-9-9-9-9-8-8-|-5-5-5-5-5-5-4-4-|-5-5-5-5-7-7-7-7-|
D|---9-9-9-9-9-9-8-8-|-9-9-9-9-9-9-8-8-|-5-5-5-5-5-5-4-4-|-5-5-5-5-7-7-7-7-|	x2
A|---7-7-7-7-7-7-6-6-|-7-7-7-7-7-7-6-6-|-3-3-3-3-3-3-2-2-|-3-3-3-3-5-5-5-5-|
E|-------------------|-----------------|-----------------|-----------------|

Slower
G|---9-9-9-9-9-9-8-8-|-9-9-9-9-9-9-8-8-|-5-5-5-5-5-5-4-4-|-5-5-5-5-7-7-\17-17/9|
D|---9-9-9-9-9-9-8-8-|-9-9-9-9-9-9-8-8-|-5-5-5-5-5-5-4-4-|-5-5-5-5-7-7-\17-17/9|	
A|---7-7-7-7-7-7-6-6-|-7-7-7-7-7-7-6-6-|-3-3-3-3-3-3-2-2-|-3-3-3-3-5-5-\15-15/7|
E|-------------------|-----------------|-----------------|---------------------|

Sirens Part[3:26-4:20]

Re-Enter[4:21-4:47]
G|-----------------------------------------------------|
D|------2--5--7~-------5--10--12~---10-9---------------|
A|----3------------7---------------------12-10-12-10---|
E|-----------------------------------------------------|

G|---------------------------------|
D|------2--5--7~-----5--10--12~----|
A|----3------------7---------------|
E|---------------------------------|

G|---------------------------------------------------|
D|------2--5--7~-----5--10--12~---10-9---------------|
A|----3------------7-------------------12-10---------|
E|---------------------------------------------------|

G|---------------------------------|
D|------2--5--7~-----5--10--12~----|
A|----3------------7---------------|
E|---------------------------------|

[4:48-5:00]Can You Guide me...
G|---------------------------------|
D|------2--5--7~-----5--10--12~----|	x2
A|----3------------7---------------|
E|---------------------------------|

[5:01-5:13]
Fast.
G|----------------|
D|------2--5--7---|	x4
A|----3-----------|
E|----------------|

Fast.
G|----------------|
D|------5--10--12-|	x4
A|----7-----------|
E|----------------|

Fast.
G|----------------|
D|------2--5--7---|	x4
A|----3-----------|
E|----------------|

Fast.
G|----------------|
D|------5--10--12-|	x4
A|----7-----------|
E|----------------|

[5:14-5:32]
You can Play this which sounds more correctly.
G|----------------------------------------------------------|
D|----------------------------------------------------------|
A|-00-00-00-00-------------00-00-00-00-------------------0~-|
E|-------------00-00-00-00-------------00-00-0-0-00-0-00----|

Or This..V

G|--1212-1212-1212-1212-|-77-77-77-77-|--1212-1212-1212-1212-|-77-77------------------|
D|--1010-1010-1010-1010-|-55-55-55-55-|--1010-1010-1010-1010-|-55-55------------------|
A|--1212-1212-1212-1212-|-77-77-77-77-|--1212-1212-1212-1212-|-77-77-7-7-77-7-77-7-12-|
E|----------------------|-------------|----------------------|------------------------|

Drum Break[5:33-6:22]


[6:23-6:36]
G|--5-5-5----12-12-12---|
D|--5-5-5----12-12-12---|	x4
A|--3-3-3----10-10-10---|
E|----------------------|

[6:37-6:51]
G|--------------------------------|
D|------555-7----999--10h9--------|
A|----3--------7----------12h10---|
E|--------------------------------|

G|--------------------------------|
D|------555-7----999--12h9--------|
A|----3--------7----------12h10---|
E|--------------------------------|

G|--------------------------------|
D|------555-7----999--12h9--------|
A|----3--------7----------12h10---|
E|--------------------------------|

G|-------------------------|
D|------555-7----999-12----|
A|----3--------7-----------|
E|-------------------------|

[6:52-7:02]
G|-----------------------------|-----------|-----------|-----------|-----------|
D|-----------------------------|-999999999-|-999999999-|-999999999-|-----------|
A|-10/12\10-------10/12\10-----|-----------|-----------|-----------|-----------|
E|-----------0-8-----------0-8-|-----------|-----------|-----------|-8~---3~--3|



| /  slide up
| \  slide down
| h  hammer-on
| p  pull-off
| ~  vibrato
| +  harmonic
| x  Mute note
===============================================================================

Suggest correction
Give kudos to tab author, rate the tab!
1 2 3 4 5
comments
print report bad tab
4 comments total. Showing first comments.
0 reply
DreykeB210 10 wrote on February 13 2009, 01:38 pm

sounds right on to me! are you sure its in standard tuning though?

0 reply
kylepianoman 193 wrote on February 13 2009, 11:26 pm

the whole EP is in standard

0 reply
-Joe- 50 wrote on February 14 2009, 01:46 am

Yeah its in Standard.
:P

guest
You may want to rate the tab now too:
select rating
Wanna post a correction for this tab? Suggest correction