Oops, an error
Loading. Please wait.

Chapter Iii Nostalgic Mannerisms Tab

version 1
version 1

Whole song

3,550 views 1 this week
7 commentsread comments
1 2 3 4 5
worth learning
x 4
add to favorites
launch autoscroll
font size
0
reset
how to read this tab
guitar tuner
Tab Pro tools
  • play this tab
  • loop segment
  • change instrument
  • show fretboard
  • metronome
Autoscroll
slow
fast
+/-
esc
set tempo
stop
Contributor
Chapter III: Nostalgic Mannerisms
Written by The Fall of Troy
Tabbed by Patrick from Atalantis (myspace.com/mmmatalantis)
(Credits for the (much needed) help are at the bottom.)

|----------------------|7777777777|7h10p7p0-------------|
|-8s10s8------8s10s8---|8888888888|---------8s10p0h8s12-|
|-7s-9s7p0----7s-9s7---|9999999999|---------------------|
|----------------------|----------|---------------------|
|----------------------|----------|---------------------|
|----------8---------8-|----------|---------------------|

|--10----10----10----10----10s14--14----14----15----15----15--15---|
|----12----12----12----12-----------15----15----15----15-----------|
|12----12----12----12----12-----------16----16----16----16--16--16-|
|------------------------------------------------------------------|
|------------------------------------------------------------------|
|------------------------------------------------------------------|

|----------------------|7777777777x7777777777|7h10p7p0-------------|
|-8s10s8------8s10s8---|8888888888x8888888888|---------8s10p0h8s12-|
|-7s-9s7p0----7s-9s7---|9999999999x9999999999|---------------------|
|----------------------|---------------------|---------------------|
|----------------------|---------------------|---------------------|
|----------8---------8-|---------------------|---------------------|

|--10----10----10----10----10s14--14----14----15----15----15--15---|
|----12----12----12----12-----------15----15----15----15-----------|
|12----12----12----12----12-----------16----16----16----16--16--16-|
|------------------------------------------------------------------|
|------------------------------------------------------------------|
|------------------------------------------------------------------|

|------------------------------------------------------------|
|13----13----13----13----13----13----13----13----13-----13~--|
|--12----12----12----12----12----12----12----12----12---12~--|
|----14----14----14----14----14----14----14----14----14-14~--|
|------------------------------------------------------------|
|------------------------------------------------------------|

|------------15p12---------------------1517---------------|
|13-----13--------15p13------------18------18p17p15-------|
|12--------14----------14p12-----17--17------------h17----|
|14---14--------------------14-15-------------------------|
|12-12----------------------------------------------------|
|---------------------------------------------------------|

|---------------------------------------------------------|
|----13--15-13-12h13----------10--12p10--13p10--12p10--10-|
|--12--12------------12h14--10--10-------------------10---|
|14-----------------------12-----------10-----10----------|
|---------------------------------------------------------|
|---------------------------------------------------------|

|------------15p12---------------------1517---------------|
|13-----13--------15p13------------18------18p17p15-------|
|12--------14----------14p12-----17--17------------h17----|
|14---14--------------------14-15-------------------------|
|12-12----------------------------------------------------|
|---------------------------------------------------------|

|----------------------------------------------------------|
|----13--15-13-12h13----------10--12p10--13p10--15p10--13--|
|--12--12------------12h14--10--10-------------------10----|
|14-----------------------12-----------10-----10-----------|
|----------------------------------------------------------|
|----------------------------------------------------------|

|-----------------------------------------------|
|1212-1212-12-12tp------------------------------|
|1212-1212-12-12tp--1212-1212-12-xxxx-xxxx-xx---|
|1010-1010-10-12tp--1010-1010-10-xxxx-xxxx-xx---|
|1212-1212-12-------1010-1010-10-xxxx-xxxx-xx---|
|-----------------------------------------------|

|-------------------------------------------------------|
|1212-1212-12-12tp---------------------------12xx12xx12-|
|1212-1212-12-12tp--1212-1212-12-xxxx-xxxx-xx12xx12xx12-|
|1010-1010-10-12tp--1010-1010-10-xxxx-xxxx-xx10xx10xx10-|
|1212-1212-12-------1010-1010-10-xxxx-xxxx-xx12xx12xx12-|
|-------------------------------------------------------|

First time
|12p10-------------------------------------------------------------|
|-----12p10p8p0h8s10p0---------------------------------------------|
|---------------------7s9p09s7p07s9p09p07p05p04p0------------------|
|------------------------------------------------7p05s7p0----------|
|--------------------------------------------------------5s7-5-3---|
|----------------------------------------------------------------3-|

Second Time
|12p10----------------------------------------------------------------|
|-----12p10p8p0h8s10p0------------------------------------------------|
|---------------------7s9p09s7p05s7p0-7p4h5p0-------------------------|
|---------------------------------------------7s5s7p0h2-5s7s5-2*b3r2--|
|---------------------------------------------------------------------|
|---------------------------------------------------------------------|

                     (vvv-- Play this section x3 --vvv)
|-------------------|-15p0-------15p0------17p0--------|
|-------------------|-----17p15------15p0------17p0----|
|-------------------|----------16--------16--------16--|
|-------------------|----------------------------------|
|2222-2222-2222-2222|----------------------------------|
|0000-0000-0000-0000|----------------------------------|

 (vvvvv--- 4x each --------------------------------------|vvvvv)
|------------------------------|-------------------------|
|t5p0h30-t7p0h40-t8p0h5-t10p0h7|10-9p7h9-----------------|
|------------------------------|-------------------------| (insert improv)
|------------------------------|--------- (    here------|     )
|------------------------------|-------------------------|
|------------------------------|-------------------------|

|-----15-----15---15-----14-----14---14|20tp-19tp-|-------------|
|--------------------------------------|----------|-------------|
|16-16--16-16--16---14-14--14-14---14--|----------|11111111-888-|
|--------------------------------------|----------|-x-x-x-x-xxx-|
|--------------------------------------|----------|-9-9-9-9-666-|
|--------------------------------------|----------|-------------|

(Figure out the strumming) (trem pick all these)
|-------------------------|----------------------------------|---|
|-------------------------|----------------------------------|---|
|9-8-9-8------7-9-7-------|161417161417------------------2021|---|
|9-8-9-8-10-9-7-9-7-------|------------141316141314161721----|-2-|
|7-6-7-6-10-9-5-7-5-------|----------------------------------|-2-|
|---------8-7-------------|----------------------------------|-0-|

*Breaks FTW, but the fun ain't over yet.*

|----------------|-------10~------5~-------10--|
|--12--8~---7--3~|--12--8-----7--3----12--8----|
|----------------|-----------------------------|
|10--10---5--5---|10--10----5--5----10--10-----|
|----------------|-----------------------------|
|----------------|-----------------------------|

|15p12h15p12-----------17-15~-|
|-----------15p12h15s17-------|
|-----------------------------|
|-----------------------------|
|-----------------------------|
|-----------------------------|

    (vvvvv--- this part x2 --------------|vvvvv)
|---------10--12----------------5--------|
|--12--8----------12--8--7--3-----7--3---|
|----------------------------------------|
|10--10-10--10--10--10--5--5--5--5--5----|
|----------------------------------------|
|----------------------------------------|

|----------10p012p0---------------------------------------|
|--12p08p0---------10p012p0-8p012p0-----------------------|
|---------------------------------------------------------|
|10~~~(hold note throughout)------------------------------|
|---------------------------------------------------------|
|---------------------------------------------------------|

|--------5p07p0----------------|
|-7p03p0-------5p07p03p07p0----|
|------------------------------|
|5~~~(hold note throughout)----
|------------------------------|
|------------------------------|

|------------(1517151315------)|----|
|------------(----------1715--)|----|
|1616-1212---(--------------16)|----|
|-x-x--x-x---------------------|-7~-|
|1414-1010---------------------|-7~-|
|------------------------------|-5~-|

*Breaks FTW #2...just a bit more*


|10-10-10-10-(9s10s9s10s9s10s9s10)-7--7--7--7--7p0----10p0-|
|-8--8--8--8-----------------------8--8--8--8--------8-----|
|-9--9--9--9-----------------------9--9--9--9-----7h9------|
|10-10-10-10----------------------10-10-10-10--------------|
|----------------------------------------------------------|
|----------------------------------------------------------|

|10-10-10-10-(9s10s9s10s9s10s9s10)-7--7--7--7--7p0---10p0---|
|-8--8--8--8-----------------------8--8--8--8---------------|
|-9--9--9--9-----------------------9--9--9--9-----7h9-------|
|10-10-10-10----------------------10-10-10-10---------------|
|-----------------------------------------------------------|
|-----------------------------------------------------------|


|/15-12----------------------------------------------------|
|------15-12-13-12--------------------------------12--15---|
|-----------------14-12-14-12-16b17r16-14-12h14p12--14--14-|
|----------------------------------------------------------|
|----------------------------------------------------------|
|----------------------------------------------------------|

|----------------------|7777777777x7777777777-|
|-8s10s8------8s10s8---|8888888888x8888888888-|
|-7s-9s7p0----7s-9s7---|9999999999x9999999999-|
|----------------------|----------------------|
|----------------------|----------------------|
|----------8---------8-|----------------------|

|--------------|
|12~-----------|
|12~--12~------|
|10~--10~------|
|12~--10~------|
|--------------|

And now...CREDITS!

Thanks to:
GuitarSilkGod91 for being the first to cover it and for part of intro.
legittabber9 for adding parts to the intro.

Now, I'm done. I think it's sleepy time.
comments
print report bad tab
7 comments total. Showing first comments.
-2 reply
andrew12398 wrote on January 23 2009, 05:45 pm

Wayyyy off lol.

-1 reply
nieschizzle wrote on January 27 2009, 05:30 pm

although everything is wrong(except the guitar re-entry, spot on), you're on the right track.

+1 reply
legittabber9 wrote on January 31 2009, 03:12 pm

hers wut i can add

Track 1
|-3-| |-3-| 3 3
S S S S E S S S S E S S S S S S S S E S S S S E S S S S E
D#||--------------------------|--7-7-7-7-7-7-7-7-7--|--------------------------|
A#||--8-10-8------8-10-8------|--8-8-8-8-8-8-8-8-8--|--8-10-8------8-10-8------|
F#||--7--9-7------7--9-7------|--9-9-9-9-9-9-9-9-9--|--7--9-7------7--9-7------|
C#||--------------------------|---------------------|--------------------------|
G#||--------------------------|---------------------|--------------------------|
D#||---------0-8---------0-8--|---------------------|---------0-8---------0-8--|

S S S S S S S S T T S S S S S S S S S S S S S S S
--12-15-0--------------|-----------------------------------------------------|
----------12-13-0-15-0-|--------15-15-------15-------15-------15-------15----|
-----------------------|-----12-------12-------12-------12-------12-------12-|
-----------------------|--14-------------14-------14-------14-------14-------|
-----------------------|-----------------------------------------------------|
-----------------------|-----------------------------------------------------|

T T S S S S S S S S S S S S S S S
-----------------------------------------------------|
--------19-19-------19-------20----19----20----19----|
-----16-------16-------16-------16----16----16----16-|
--17-------------17-------17-------------------------|
-----------------------------------------------------|
-----------------------------------------------------|

|-3-| |-3-| 3 3 |-3-| |-3-| 3 3
S S S S E S S S S E S S S S S S S S E S S S S S S S S E
--------------------------|--7-7-7-7-x-7-7-7-x--7-7-7-7-x-7-7-7-x--|
--8-10-8------8-10-8------|--8-8-8-x-8-x-8-x-8--8-8-8-x-8-x-8-x-8--|
--7--9-7------7--9-7------|--9-9-x-9-9-9-x-9-9--9-9-x-9-9-9-x-9-9--|
--------------------------|----------------------------------------|
--------------------------|----------------------------------------|
---------0-8---------0-8--|----------------------------------------|

S S S S E S S S S E S S S S S S S S
--------------------------|--12-15-0--------------|
--8-10-8------8-10-8------|----------12-13-0-15-0-|
--7--9-7------7--9-7------|-----------------------|
--------------------------|-----------------------|
--------------------------|-----------------------|
---------0-8---------0-8--|-----------------------|

T T S S S S S S S S S S S S S S S
-----------------------------------------------------|
--------15-15-------15-------15-------15-------15----|
-----12-------12-------12-------12-------12-------12-|
--14-------------14-------14-------14-------14-------|
-----------------------------------------------------|
-----------------------------------------------------|

T T S S S S S S S S S S S S S S S
-----------------------------------------------------|
--------19-19-------19-------20----19----20----19----|
-----16-------16-------16-------16----16----16----16-|
--17-------------17-------17-------------------------|
-----------------------------------------------------|
-----------------------------------------------------|

S S S S S S S S S S S S S S S S S S S S S S S S S S
--------------------------------------------------------------------------------
--13-------13-------13-------13-------13-------13-------13-------13-------13----
-----12-------12-------12-------12-------12-------12-------12-------12-------12-
--------10-------10-------10-------10-------10-------10-------10-------10-------
--------------------------------------------------------------------------------
--------------------------------------------------------------------------------

----|----|----|----|
----|----|----|----|
----|----|----|----|
----|----|----|----|
----|----|----|----|
----|----|----|----|

S E S E E S E S S S S S S E S E E. T. T. T. T. S S S S
--------------------------------------------------------------------------------
--12-12--12-12--12--10-10--10-10-10-10-10--8--8---8--8---8---x--x--x--x--x-x-x-x
--12-12--12-12--12--12-12--12-12-12-12-12-10-10--10-10--10---x--x--x--x--x-x-x-x
--10-10--10-10--10--10-10--10-10-10-10-10-10-10--10-10--10---x--x--x--x--x-x-x-x
--12-12--12-12--12--12-12--12-12-12-12-12--8--8---8--8---8---x--x--x--x--x-x-x-x
--------------------------------------------------------------------------------

S E S E E S E S S S S S S E S E S.T. T. T. S S S S S S
--------------------------------------------------------------------------------
--12-12--12-12--12--10-10--10-10-10-10-10--8--8---8--8---8-x--x--x--x-x-x-x-x-x-
--12-12--12-12--12--12-12--12-12-12-12-12-10-10--10-10--10-x--x--x--x-x-x-x-x-x-
--10-10--10-10--10--10-10--10-10-10-10-10-10-10--10-10--10-x--x--x--x-x-x-x-x-x-
--12-12--12-12--12--12-12--12-12-12-12-12--8--8---8--8---8-x--x--x

I want to post or [tab]
guest
You may want to rate the tab now too:
select rating
Please do not post tabs as comments. Select "correction" instead!