Oops, an error
Loading. Please wait.

Chapter Iii Nostalgic Mannerisms Tab

version 2
version 2

Whole song

8,897 views 3 this week
11 commentsread comments
1 2 3 4 5
excellent!
x 9
add to favorites
launch autoscroll
font size
0
reset
how to read this tab
guitar tuner
Autoscroll
slow
fast
+/-
esc
set tempo
stop
Help us to improve Ultimate-Guitar.com Take our survey!
×
Author
-------------------------------------------------------------------------------
         Chapter III: Nostalgic Mannerisms– The Fall of Troy
-------------------------------------------------------------------------------
Tabbed by: SamTheMan
Email: georizzo@yahoo.com

Tuning: E A D G B e (standard)

So I thought I’d try and tab out one of my favorite songs from TFOT...not an easy thing 
do. I wasn’t too sure about the verse riff, if anyone wants to help. If there are any 
questions, or comments email me.

Intro
e|----------------------|-777-7777-|-12h15p12p0------------------------------|
B|-8/10\8----8/10\8-----|-888-8888-|-----------12h13p12/15-------------------|
G|-7/-9\7p0--7/-9\7p0---|-999-9999-|-----------------------------------------|
D|----------------------|-xxx-xxxx-|-----------------------------------------|
A|----------------------|-xxx-xxxx-|-----------------------------------------|
E|---------8---------8--|-xxx-xxxx-|-----------------------------------------|
                                                               (X10)
e|---10----10----10----10------14h15p14--19----15----15------|---------------|
B|-----12----12----12----12------------15--15----15----15----|-13------------|
G|-12----12----12----12----12----------------16----16----16--|---12----------|
D|-----------------------------------------------------------|-----14--------|
A|-----------------------------------------------------------|---------------|
E|-----------------------------------------------------------|---------------|

Verse
e|---------15p12-------------1517-----------------------------------------------|
B|----15p13-----15p12—--15p13----17p15----15~13~12h13p12------------------------|
G|--9-----------------5----------------5-----------------12h14------------------|
D|-10-----------------7----------------5----------------------------------------|
A|-12-----------------8----------------3----------------------------------------|
E|------------------------------------------------------------------------------|

Chorus
e|------------------------------xxxx-xxx-x-|-xxxx-xxx-|----------------------|
B|-121212-1212-12tp-------------xxxx-xxx-x-|-xxxx-xxx-|----------------------|
G|-141414-1414-14tp-121212-1212-xxxx-xxx-x-|-xxxx-xxx-|----------------------|
D|-141414-1414-------x-x-x—-x-x-xxxx-xxx-x-|-xxxx-xxx-|----------------------|
A|-121212-1212------101010-1010-xxxx-xxx-x-|-xxxx-xxx-|----------------------|
E|------------------------------xxxx-xxx-x-|-xxxx-xxx-|----------------------|


e|---------------------------------------------------------------------------|
B|-1212-12x1212--------------------------------------------------------------|
G|-1212-12x1212-12/14-141414\999-9-9\5-5/7-7-777-----------------------------|
D|-1010-10x1010—-x/-x--x-x-x\xxx-x-x\x-x/x-x-xxx-----------------------------|
A|-1212-12x1212-10/12-121212\777-7-7\3-3/5-5-555-----------------------------|
E|---------------------------------------------------------------------------|

Bridge
e|-----------------------|-15p0-----------17p0-----17p0----------------------|
B|-----------------------|-----17p15p0---------15-------17p0-----------------|
G|-----------------------|------------16p0--------16---------16--------------|
D|2222-2222-2222-2222----|---------------------------------------------------|
A|2222-2222-2222-2222----|---------------------------------------------------|
E|0000-0000-0000-0000----|---------------------------------------------------|


   T     T    T      T    T      T    T      T    T      T  (X8 for each)
e|----------------------------------------------------------------THE--------|
B|-8p0h5h8—--10p0h4h10---12p0h5h12---13p0h4h13---15p0h4h15----CRAZY-SOLO-----|
G|-----------------------------------------------------------WITH-WAH-PEDAL--|
D|-----------------------------------------------------------THAT-I-DON’T----|
A|--------------------------------------------------------------WANT-TO------|
E|----------------------------------------------------------------TAB--------|


e|------15----15---------------1415--1415--14--|-20tp-19tp-------------------|
B|-15b17---15b---15b17-15b17-15----15----15----|-----------------------------|
G|---------------------------------------------|-----------------------------|
D|---------------------------------------------|-----------------------------|
A|---------------------------------------------|-----------------------------|
E|---------------------------------------------|-----------------------------|

(During Erak’s Falsetto Part)
e|---------------------------------------------------------------------------|
B|---------------------------------------------------------------------------|
G|-9-9-9-9-9--9\8-4/9-9-9-9--9-9\8-8\4-4-4-4--4-4-4-4-4-4-4-4-7-7-7-7--9~~---|
D|-5-5-5-5-5--5\4-4/5-5-5-5--5-5\4-4\2-2-2-2--2-2-1-1-2-2-2-2-4-4-4-4--5~~---|
A|-7-7-7-7-7--7\6-6/7-7-7-7--7-7\6-6\3-3-3-3--3-3-2-2-3-3-3-3-5-5-5-5--7~~---|
E|---------------------------------------------------------------------------|

Before the Interlude             (figure out the amount of picking for these)
e|---------------------------------------------------------------------------|
B|-12tp-10tp-13tp-12tp-10tp-13tp-12tp-5tp-4tp-5tp-7tp-8tp-0tp-1tp-5tp--------|
G|---------------------------------------------------------------------------|
D|---------------------------------------------------------------------------|
A|---------------------------------------------------------------------------|
E|---------------------------------------------------------------------------|

After Interlude
e|----------------------------------10----------5-|15p12h15-12------1215b17tp|
B|----12----8----7----3-----12----8------7----3---|-----------141214---------|
G|------------------------------------------------|--------------------------|
D|-10----10----5----5----10----10------5----5-----|--------------------------|
A|------------------------------------------------|--------------------------|
E|------------------------------------------------|--------------------------|

Cont.
e|15tp-|-----------------10------12------------------------------------------|
B|-----|----12----8-----------------------12-----8---------------------------|
G|-----|---------------------------------------------------------------------|
D|-----|-10----10----1010----1010----1010-----10-----------------------------|
A|-----|---------------------------------------------------------------------|
E|-----|---------------------------------------------------------------------|

e|--------------5-----7------------------------------------------------------|
B|---7----3-----------------7----3-------------------------------------------|
G|---------------------------------------------------------------------------|
D|-5----5----55----55----55----5---------------------------------------------|
A|---------------------------------------------------------------------------|
E|---------------------------------------------------------------------------|

e|----------------10p0---12p0---------------5p0---7p0------------------------|
B|----12----8---------------------7----3-------------------------------------|
G|---------------------------------------------------------------------------|
D|-10----10----10-----10--------5----5----5-----5----------------------------|
A|---------------------------------------------------------------------------|
E|---------------------------------------------------------------------------|


First chord is played twice alone, then muted strings after each chord strum
e|------------------------|--------------------------------------------------|
B|-10-10-xxxx-------------|--------------------------------------------------|
G|--9--9-xxxx--12-12--7-7-|---7-7--7-7-7~------------------------------------|
D|-10-10-xxxx--10-10--5-5-|---5-5--5-5-5~--7~~-------------------------------|
A|-------------12-12--7-7-|---7-7--7-7-7~--x~~-------------------------------|
E|------------------------|-00-0-00-0------5~~-------------------------------|
                            .. . .. .
e|---------------------------------------10p0--------------------------------|
B|----------14br-14br-14br-------7h8p7---------------------------------------|
G|-12-12-12----------------7-7-7------7h9------------------------------------|
D|-10-10-10----------------5-5-5---------------------------------------------|
A|-12-12-12----------------7-7-7---------------------------------------------|
E|---------------------------------------------------------------------------|

                 (For these there is either a delay, or slow tremolo picking)
e|-1715-------|15-12---------------------------------------------------------|
B|-----1715---|-----15-12-13-12-----12-12b13r12---12-----------12------------|
G|---------16-|----------------14-12-----------14~--12-11--11----141214121112|
D|------------|------------------------------------------12--12--------------|
A|------------|--------------------------------------------------------------|
E|------------|--------------------------------------------------------------|

Repeat Intro then

Outro
e|-------3~------------------------------------------------------------------|
B|-------3~---------------------------I’LL-TAB-THE---------------------------|
G|-------4~---2p0h2p0h2p0---//12---------END-“SOLO”--------------------------|
D|--9\---5~-----------------//-9------ONLY-IF-PEOPLE-------------------------|
A|-10\---5~-----------------//10-----------WANT------------------------------|
E|--8\---3~---------------------------------IT-------------------------------|


<<<<<<<<<<<<<<<<<<<<<<<<<<<<<<<<<<<<>>>>>>>>>>>>>>>>>>>>>>>>>>>>>>>>>

| /  slide up
| \  slide down
| h  hammer-on
| p  pull-off
| ~  vibrato
| <> harmonic
| x  Palm mute
| tp tremolo Pick
| b  bend
| r  release bend
| T  fret tap
| .  damping

===============================================================================
Suggest correction
comments
print report bad tab
11 comments total. Showing first comments.
+1 reply
tfotareheros 10 wrote on May 3 2009, 11:27 pm

i would love to know the little solo at the end please put it

0 reply
vipah28 10 wrote on May 11 2009, 05:51 pm

do it do it

+1 reply
georizzo 195 wrote on May 12 2009, 10:17 am

ok, i'll see what i can do, and will try to post it as soon as possible

you guys should rate my tab!

guest
You may want to rate the tab now too:
select rating
Please do not post tabs as comments. Select "correction" instead!