Oops, an error
Loading. Please wait.

Chapter Iv Enter The Black Demon Bass Tab

1,595 views 1 this week
no commentswrite comment
1 2 3 4 5
please rate
add to favorites
launch autoscroll
font size
0
reset
guitar tuner
Autoscroll
slow
fast
+/-
esc
set tempo
stop
Help us to improve Ultimate-Guitar.com Take our survey!
×
Author
dvanwyk 5,825
-------------------------------------------------------------------------------
	Chapter IV: Enter The Black Demon - The Fall Of Troy
-------------------------------------------------------------------------------

 Tabbed by:dvanwyk
 Email:dustinvanwyk@yahoo.com

 Tuning:Standard

 Intro x2
G|---------------------|
D|---------------------|
A|---------------------|
E|0000000000-----------|

G|--4---4h5-4----7---7h9-7----2---4-2-------------|
D|------------------------------------------------|
A|3---3--------7---7--------2---2-----------------|
E|------------------------------------5555-3333---|

 
G|-------------------------------------------------|
D|------------555-5p4------------------------------|
A|777------------------777----------2h3p3----------|
E|----7-7-888--------------7-7-555--------5-3------|

 x2
G|--------------------------------------------|
D|------------555-5p4-------------------------|
A|777------------------777----------5555------|
E|----7-7-888--------------7-7-555------------|

G|--------------------------------------------|
D|------------555-5p4-------------------------|
A|777------------------777----------5/7\3-----|
E|----7-7-888--------------7-7-555------------|


 Chorus
G|-------------------------------------------------|
D|7-7-7-7---------------7-7-7-7--------------------|
A|-----------7-7-7-7---------------7-7-7-7---------|
E|-------------------------------------------------|

G|-------------------------------------------12--|
D|7-7-5/7-7-5/7-5/7-7-------------9p7-7----------|
A|---------------------7-7-5/7-7--------7h10-----|
E|-----------------------------------------------|

G|----------------------------------------------|
D|7-7-5/7-7-5/7-5/7-7---------------------------|
A|---------------------7-7-5/7-7----------------|
E|--------------------------------7p5-5-0h3-0---|

 Post-Chorus x2
G|--------------------------------------------|
D|------------555-5p4-------------------------|
A|777------------------777----------5555------|
E|----7-7-888--------------7-7-555------------|

 
G|-------------------------------------------------|
D|------------555-5p4------------------------------|
A|777------------------777----------2h3p3----------|
E|----7-7-888--------------7-7-555--------5-3------|

 x2
G|-----------------------------------|
D|------------555-5p4----------------|
A|777------------------777-----------|
E|----7-7-888--------------7-7-555---|

 Chorus

 Pause

 Bridge x4 (1.58)
G|------------------------------------------------------------|
D|-------------7----------------------------------------------|
A|----------------------------10---------------7--3333-2222---|
E|7p0-5/7-7h10---7p0-5/7-7h10-----7p0-5/7-7h10----------------|

 x4
G|-----------------------------|
D|-----------------------------|
A|5h7--------------------------|
E|----8-5-8\4-7\3-6\2-4--------|

 Pause

 (2.45)
G|---------------------|
D|77--1010-------------|
A|----------88---------|
E|---------------------|

 x2
G|------------------10~--9~-------------------|
D|----------5-2-3~-----------77--1010---------|
A|0--3-2-3-----------------------------88-----|
E|--------------------------------------------|

 x3
G|---------------------|
D|77--1010-------------|
A|----------88---------|
E|---------------------|

G|--------------------------|
D|--------------------------|
A|--------------------------|
E|5~----2~----1~----0~------|

 x4
G|----------------------------------------------|
D|----------------------------------------------|
A|10p9p7-7--------------------------------------|
E|---------777-5--222-3--555-3--888-7--(Pause)--|

 Pause
 
 x2 (3.47)
G|----------------9-----------------------------|
D|--9----------12---9~---555-444----------------|
A|7---7-10--10---------7---------777-555--------|
E|---------------------------------------888-7--|

G|-------------------9----------------------------------|
D|-----9----------12---9~-7h9p7-5h7p5-4h5p4-------------|
A|7--7---7-10--10---------------------------------------|
E|------------------------------------------5--5-7-5-3--|


G|---------------|
D|---------------|
A|---------------|
E|5--5-7-5-3-----|

 x4
G|-----------------------------|
D|-----------------------------|
A|5h7--------------------------|
E|----8-5-8\4-7\3-6\2-4--------|

 Pause

 (4.32)
G|----------------|
D|7~------10~-----|
A|----------------|
E|----------------|

 (4.41)
G|--------------------------------7/\9\7-------------------12----------|
D|-----------------------------7~--------5/7-7--10~--12h14----14-1010--|
A|7---77-5-7-7p5----8~---88-8------------------------------------------|
E|---------------8-----8-----------------------------------------------|

G|------------------------------------------------|
D|----------------------7--7-77-7--10--101010-10--|
A|7--77-7-7--8--88-8-8----------------------------|
E|------------------------------------------------|
Suggest correction
What's this?
You can suggest a correction to this tab. Community and Mods will review your correction and vote to approve or reject it.
comments
We did not receive enough feedback on this tab! Please rate:
print report bad tab
1 2 3 4 5
guest
You may want to rate the tab now too:
select rating
Please do not post tabs as comments. Select "correction" instead!