Oops, an error
Loading. Please wait.

Cut Down All The Streets And Name The Streets After Them Bass Tab

5,759 views 1 this week
4 commentsread comments
1 2 3 4 5
excellent!
x 3
add to favorites
launch autoscroll
font size
0
reset
guitar tuner
Autoscroll
slow
fast
+/-
esc
set tempo
stop
Help us to improve Ultimate-Guitar.com Take our survey!
×
Author
Difficulty
Tuning
intermediate
D A D G B E
Song: Cut Down All The Trees And Name The Streets After Them
Artist: The Fall Of Troy
Album: Manipulator
Tabbed By: Chandler DeBardeleben {cdebard@charter.net}

Drop D

Intro x2

G|------4------------4------------5-----------5-----------5----------------|
D|--5-------5----5-------5----7-------7---7-------7---7-------7----5h7p5---|
A|7---7---7----7---7---7----9---9---9---9---9---9---8---8---8---8--------8-|
E|-------------------------------------------------------------------------|

G|-----------------12-11---------------------------------------------------|
D|-----------10-10---------------------------------------------------------|
A|-7-7/10-10---------------------------------------------------------------|
E|-------------------------------------------------------------------------|

Chorus x2

G|----7p5p0--7-7/9-9------7p5p0-5-5-2-0------------------------------------|
D|-------------------------------------------------------------------------|
A|0-0-----------------3-3---------------------3-3-3-5-5-5------------------|
E|--------------------------------------3-3-3------------------------------|


Verse/Intro x2

Chorus x2

Bridge: Each part x2


G|-------------------------------------------------------------------------|
D|-------------------------------------------------------------------------|
A|-------------------------------------------------------------------------|
E|7777-101010-14-12-33333-0000//15-----------------------------------------|


G|-------------------------------------------------------------------------|
D|-------------------------------------------------------------------------|
A|------------------------------------5-5-5--------------------------------|
E|7-7-7/15-15-15-10-10-10-7-7-7-5-5-5-------0000-0-0-0-0000-0-0-0----------|


Breakdown? x2

G|-------------------------------------------------------------------------|
D|---------------------9p7p0-5-0-9p7p0-5-0-9p7p0-5-0-----------------------|
A|-------------------------------------------------------------------------|
E|0///-\\\0--0///-\\\0-----------------------------------------------------|


Breakdown - 3rd time ends with
G|---------------------------------------------------------------------------|
D|9p7p0-5-0-9p7p0-5-0-11p9p07-0-11p9p07-0-12p10p0-8-0-12p10p0-8-0------------|
A|---------------------------------------------------------------------------|
E|---------------------------------------------------------------------------|

and it keeps doing the same pattern up the fretboard, just follow the scale

| /  slide up
| \  slide down
| h  hammer-on
| p  pull-off
| ~  vibrato
| +  harmonic
| x  Mute note
Suggest correction new What's this?
You can suggest a correction to this tab. Community and Mods will review your correction and vote to approve or reject it.
comments
We did not receive enough feedback on this tab! Please rate:
print report bad tab
1 2 3 4 5
4 comments total. Showing first comments.
0 reply
carrotcake 3,046 wrote on January 16 2008, 07:15 pm

This is nice, man.
I was gonna tab this, but didn't have the time... thanks! :D

0 reply
debardeleben 85 wrote on January 16 2008, 09:22 pm

yeah dude, no problem. it did take a while but i was bored haha.

in the next couple weeks i should be able to type up
a tab of oh the casino that doesn't suck and a tab for quarter past.

0 reply
carrotcake 3,046 wrote on January 18 2008, 06:41 pm

Haha, looks like you already submitted a tab for Oh The Casino...

guest
You may want to rate the tab now too:
select rating
Please do not post tabs as comments. Select "correction" instead!