Oops, an error
Loading. Please wait.

Dark Trail Bass Tab

version 1
version 1

Whole song

Interactive

5,446 views 12 this week
10 commentsread comments
1 2 3 4 5
accurate
x 9
add to favorites
launch autoscroll
font size
0
reset
guitar tuner
Tab Pro tools
  • play this tab
  • loop segment
  • change instrument
  • show fretboard
  • metronome
×
Best way to learn
"Dark Trail"
Autoscroll
slow
fast
+/-
esc
set tempo
stop
Contributor
Check it...
This could possibly be my favorite FOT songs
it's so catchy... And the bass part is awesome...
Oh yeah... Drop D

fixed it a little bit.
was annoying me

G|------------------------------------------|
D|------------------------------------------|
A|--------------------------3---------------|
D|666666h7-7-2-33-5-77-7-235--77-7-2-33-5-7\|

G|-----------------------------------------|
D|-----------------------------------------|
A|-------55p0-------5p0h7p0---------55p0---|
D|33-3-5-------33-5---------33-3-5-------3*|

G|------------------------------------|
D|------------------------------------|
A|--------------------3---------------|
D|77-7-2-33-5-77-7-235--77-7-2-33-5-7\|

G|-----------------------------------------|
D|-----------------------------------------|
A|-------55p0-------5p0h7p0---------55p0---|
D|33-3-5-------33-5---------33-3-5-------3*|
                                    
G|------5----------9-9-----5h7h9-7-5h7p5p0--------|
D|---5h7-7-5h7~7-6-9-9-------------^FAST!^--------|
A|-------------7-7-----8-8------------------------|
D|7-7--------------------------------------10-1010|

G|-------------------------------------------------------------|
D|-------7---------------------------10-10-12-14-14-14---------|
A|----3h5--7---8-7-8-10-8-7-------10-------------------14-14-14|
D|7-7--------7--------------10-10------------------------------|

G|------5----------9-9-----5h7h9-7-5h7p5p0--------|
D|---5h7-7-5h7~7-6-9-9-------------^FAST!^--------|
A|-------------7-7-----8-8------------------------|
D|7-7--------------------------------------10-1010|

G|--------------------------------------------------------|
D|-------7---------------------------10-10-12-14-14-14----|
A|----3h5--7---8-7-8-10-8-7-------10----------------------|
D|7-7--------7--------------10-10---------------------9999|

G|------------------------------------|
D|------------------------------------|
A|--------------------3---------------|
D|77-7-2-33-5-77-7-235--77-7-2-33-5-7\|

G|-----------------------------------------|
D|-----------------------------------------|
A|-------55p0-------5p0h7p0---------55p0---|
D|33-3-5-------33-5---------33-3-5-------3*|

G|------------------------------------|
D|------------------------------------|
A|--------------------3---------------|
D|77-7-2-33-5-77-7-235--77-7-2-33-5-7\|

G|-----------------------------------------|
D|-----------------------------------------|
A|-------55p0-------5p0h7p0---------55p0---|
D|33-3-5-------33-5---------33-3-5-------3\|

G|------5----------9-9-----5h7h9-7-5h7p5p0--------|
D|---5h7-7-5h7~7-6-9-9-------------^FAST!^--------|
A|-------------7-7-----8-8------------------------|
D|7-7--------------------------------------10-1010|

G|-------------------------------------------------------------|
D|-------7---------------------------10-10-12-14-14-14---------|
A|----3h5--7---8-7-8-10-8-7-------10-------------------14-14-14|
D|7-7--------7--------------10-10------------------------------|

G|------5----------9-9-----5h7h9-7-5h7p5p0--------|
D|---5h7-7-5h7~7-6-9-9-------------^FAST!^--------|
A|-------------7-7-----8-8------------------------|
D|7-7--------------------------------------10-1010|

G|--------------------------------------------------------|
D|-------7---------------------------10-10-12-14-14-14----|
A|----3h5--7---8-7-8-10-8-7-------10-------------------14*|
D|7-7--------7--------------10-10-------------------------|

G|-------------------------------------------------------------|
D|-----------------------------------------3---3---7-----------|
A|---------------------------------------1---1---8---8---------|
D|4//16\\4\\0-4//16\\4\\0-333333333-33333--------------77-77-77|

G|-------------------------------------------------------------------------|
D|-----------------------------------------3---3---7-----------------------|
A|---------------------------------------1---1---8---8---------------------|
D|4//16\\4\\0-4//16\\4\\0-333333333-33333--------------77-77-77-77-77-7-7-7|

G|---------------------|
D|---------------------|
A|5----5-------5-----5b|x2
D|-0-0--0-0000--0000---|

G|---------------------------|
D|---------------------------|
A|---------------------------|x2
D|15b\333-6-222-5p0-8888-8888|

G|---------------------|
D|---------------------|
A|5----5-------5-----5b|x2
D|-0-0--0-0000--0000---|

G|---------------------------|
D|---------------------------|
A|---------------------------|x2
D|15b\333-6-222-5p0-8888-8888|

G|------5----------9-9-----5h7h9-7-5h7p5p0--------|
D|---5h7-7-5h7~7-6-9-9-------------^FAST!^--------|
A|-------------7-7-----8-8------------------------|
D|7-7--------------------------------------10-1010|

G|-------------------------------------------------------------|
D|-------7---------------------------10-10-12-14-14-14---------|
A|----3h5--7---8-7-8-10-8-7-------10-------------------14-14-14|
D|7-7--------7--------------10-10------------------------------|

G|------5----------9-9-----5h7h9-7-5h7p5p0--------|
D|---5h7-7-5h7~7-6-9-9-------------^FAST!^--------|
A|-------------7-7-----8-8------------------------|
D|7-7--------------------------------------10-1010|

G|-------------------------------------------------------------|
D|-------7---------------------------10-10-12-14-14-14---------|
A|----3h5--7---8-7-8-10-8-7-------10-------------------14-14-14|
D|7-7--------7--------------10-10------------------------------|
G|----------------------------------------|
D|----------------------------------------|
A|22h4p2h5p2------------------------------|x3
D|-----------55h7h9p5-00h4p0h4p0-22h5p2h4~|

G|---------------------------------|
D|---------------------------------|
A|222222---------------------------|
D|-------555555-00h4p0h4p0-22h5p2h4|

G|---------------------------|
D|---------------------------|
A|222222---------------------|x4
D|-------555555-000000-222222|

G|-----------------------|
D|-----------------------|
A|2-2-2------------------|x4
D|------5-5-5-0-0-0-2-2-2|

G|------|
D|------|
A|2~----|
D|--5~0~|


This song is awesome...
~**awfulGoodness**~
comments
print report bad tab
10 comments total. Showing first comments.
-1 reply
unitsmoving wrote on May 16 2007, 11:36 am

some parts are right, but most of it is wrong.

0 reply
awfulGoodness wrote on May 17 2007, 09:29 am

are you sure? whats incorrect?

-1 reply
unitsmoving wrote on May 19 2007, 05:04 pm

all of this.

G|------5----------9-9-----5h7h9-7-5h7p5p0---|
D|---5h7-7-5h7~7-6-9-9-------------^FAST!^---|
A|-------------7-7-----8-8----------------9-9|
D|7-7----------------------------------------|

G|------------------------------------------------------------|
D|-------7-----------5--------------10-10-12-14-14-14---------|
A|----3h5--7---7-5-7---7-5-------10-------------------14-14-14|
D|7-7--------7-------------10-10------------------------------|

G|------5----------9-9-----5h7h9-7-5h7p5p0---|
D|---5h7-7-5h7~7-6-9-9-------------^FAST!^---|
A|-------------7-7-----8-8----------------9-9|
D|7-7----------------------------------------|

G|-------------------------------------------------------|
D|-------7-----------5--------------10-10-12-14-14-14----|
A|----3h5--7---7-5-7---7-5-------10----------------------|
D|7-7--------7-------------10-10---------------------9999|



theres a pretty good tab of it on the fall of troy fourms.

I want to post or [tab]
guest
You may want to rate the tab now too:
select rating
Please do not post tabs as comments. Select "correction" instead!