Oops, an error
Loading. Please wait.

Dirty Pillow Talk Tab

8,549 views 3 this week
7 commentsread comments
1 2 3 4 5
x 6
add to favorites
×
Save as Personal and add changes to this tab that will be seen only by you. Learn more ›
×
You can save this tab as Personal to edit and correct it or add notes. All changes will be seen only by you. Learn more »
save as personal
new!
launch autoscroll
font size
0
reset
how to read this tab
guitar tuner
Autoscroll
slow
fast
+/-
esc
set tempo
stop
Author
(Guitar 1)
e|---------------------|
B|---------------------|
G|---------------------|
D|---------------------|
A|6666666666666666-----|
E|---------------------|
  ................

e|--------------------------------------------------------------------------|
B|11------------------5h8p5--------------11---------------------------------|
G|x--9--9-9--9--12-9--------5h7p5-4h5p4--x--9--9-9--9--12-9--8--9--6--8--5--| (x2)
D|9--x--x-x--x--x--x---------------------9--x--x-x--x--x--x--x--x--x--x--x--|
A|---10-1010-10-13-10-----------------------10-1010-10-13-10-9-/10-7-/9--6--|
E|--------------------------------------------------------------------------|

e|-----------------------------------------------------------------------------|
B|11------------------5h8p5--------------11------------------------------------|
G|x--9--9-9--9--12-9--------5h7p5-4h5p4--x--9--9-9--9--12-9--------------------|
D|9--x--x-x--x--x--x---------------------9--x--x-x--x--x--x--------------------|
A|---10-1010-10-13-10-----------------------10-1010-10-13-10-66666666666666666-|
E|-----------------------------------------------------------------------------|
                                                             .................

e|------------------------------------|
B|------------------------------------| (x2)
G|---------------4~-------7-----5-----|
D|---------------1~-----5-----4-------|
A|---------------2~---7-----5---------|
E|88-55-7-88-5-8----------------------|
  .. .. . .. . .

e|-----------------------------------------|
B|--------------------------------12-13-12-| (x4)
G|------------12---------12h14p12----------|
D|12-------------12-14~--------------------|
A|---12-10~--------------------------------|
E|-----------------------------------------|

e|------------------------10h12p10--------------------------------------------------|
B|---------------------------------12-10h12p10--------------------------------------|
G|1414-----1616---14-16------------------------11-11h12p11--------------------------| (x2)
D|1616-----1717---16-17------------------------------------12-12h14p12--------------|
A|-----xxx-------------------------------------------------------------15-14-12-----|
E|------------------------------------------------------------------------------15--|

e|------------------------14141414-12121212-10101010-8-8-8-8--7----|
B|------------------------15151515-13131313-12121212-10101010-8----|
G|1414-----1616---14-16--------------------------------------------|
D|1616-----1717---16-17--------------------------------------------|
A|-----xxx---------------------------------------------------------|
E|-----------------------------------------------------------------|

e|--------------------------------------------------------------------------|
B|11------------------5h8p5--------------11---------------------------------| (x2)
G|x--9--9-9--9--12-9--------5h7p5-4h5p4--x--9--9-9--9--12-9--8--9--6--8--5--|
D|9--x--x-x--x--x--x---------------------9--x--x-x--x--x--x--x--x--x--x--x--|
A|---10-1010-10-13-10-----------------------10-1010-10-13-10-9-/10-7-/9--6--|
E|--------------------------------------------------------------------------|

e|-----------------------------------------------------------------------------|
B|11------------------5h8p5--------------11------------------------------------|
G|x--9--9-9--9--12-9--------5h7p5-4h5p4--x--9--9-9--9--12-9--------------------|
D|9--x--x-x--x--x--x---------------------9--x--x-x--x--x--x--------------------|
A|---10-1010-10-13-10-----------------------10-1010-10-13-10-66666666666666666-|
E|-----------------------------------------------------------------------------|
                                                             .................

e|----------------------------------------7------------7-8-10--10-------|
B|--------------------------------7-8--10---7b--7-8-10------------12b---| (x2)
G|----------------------------------------------------------------------|
D|----------------4~---8~---4-5-7---------------------------------------|
A|------------2-3-2~---6~-----------------------------------------------|
E|0---0-3-5-3-----------------------------------------------------------|
      . . . . . .           . . .               . . .  . .

e|-----------------------------------|
B|12t-h5--------12t-----------15t15t-| (x4)
G|-------12t-h5-----12t-h5p4--14t14t-|
D|-----------------------------------|
A|-----------------------------------|
E|-----------------------------------|

e|--------------------------------------------|
B|--------------------------------------------|
G|--------------------------------------------|
D|--------------------------------------------|
A|5--------3--------2-------------------------|
E|--8-7-8----7-5-7----5-3-5--0-2-5-3--0-/-----|
  . . . .  . . . .  . . . .  . . . .

e|------------------------------------------------|
B|------------------------------------------------|
G|-------------------------------------33333333---|
D|------5p0---------5p0---------5p0----33333333---|
A|--5h7-----7---5h7-----7---5h7-----7--11111111---|
E|0-----------0-----------0-----------------------|

e|-----------------------------------------------------------------|
B|-----------------------------------------------------------------| (x2)
G|55555555-33333333------------------------------------------------|
D|55555555-33333333--------5p0-------------------5p0---------------|
A|33333333-11111111----5h7-----7-8888-8-5----5h7-----7-8888-8-5----|
E|-------------------0-----------6666-6-3--0-----------6666-6-3----|

e|----------------------------------------------|
B|----------------------------------------------|
G|----------------------------------------------|
D|-------5p0-------------------5p0--------------|
A|---5h7-----7-8888-8-5----5h7-----7-8888-8-5---|
E|-0-----------6666-6-3--0-----------6666-6-3---|

e|--------------------------------------|
B|--------------------------------------|
G|--------------------------------------|
D|------5p0---------5p0-----------------|
A|--5h7-----7---5h7-----7---------------|
E|0-----------0------------00-00-00-0---|
                           .. .. .. .

e|---------------------------------------|
B|---------------------------------------| (x2)
G|---------------------------------------|
D|--------5-5-5-5-------8-------8--------|
A|2-2-2-2-3-3-3-3-2-2-2-6-2-2-2-6--------|
E|0-0-0-0---------0-0-0---0-0-0----------|

e|----------------------------------------|
B|----------------------------------------| (x2)
G|----------------------------------------|
D|------55555-----------8----------8------|
A|22222-33333-222222222-6-22222222-6------|
E|00000-------000000000---00000000--------|

e|------------8----------------8-----------------8-----------------8-------|
B|------0h7h8---8p0-------07h8---8p0-------0h7h8---8p0-------0h7h8---8p0---|
G|-------------------------------------------------------------------------|
D|8-8-8-------------8-8-8------------8-8-8-------------8-8-8---------------|
A|7-7-7-------------7-7-7------------7-7-7-------------7-7-7---------------|
E|-------------------------------------------------------------------------|

e|--------------------------------------------|
B|--------------------------------------------|
G|--------------------------------------------|
D|--------------------------------------------|
A|5--------3--------2-------------------------|
E|--8-7-8----7-5-7----5-3-5--0-2-5-3----------|
  . . . .  . . . .  . . . .  . . . .

e|----------------|
B|----------------|
G|----------------|
D|----------------|
A|2--2--2--2------|
E|0--0--0--0------|

e|--------------------------------------------------------------------------|
B|11------------------5h8p5--------------11---------------------------------|
G|x--9--9-9--9--12-9--------5h7p5-4h5p4--x--9--9-9--9--12-9--8--9--6--8--5--|
D|9--x--x-x--x--x--x---------------------9--x--x-x--x--x--x--x--x--x--x--x--|
A|---10-1010-10-13-10-----------------------10-1010-10-13-10-9-/10-7-/9--6--|
E|--------------------------------------------------------------------------|

e|-----------------------------------------------------------------------------|
B|11------------------5h8p5--------------11------------------------------------|
G|x--9--9-9--9--12-9--------5h7p5-4h5p4--x--9--9-9--9--12-9--------------------|
D|9--x--x-x--x--x--x---------------------9--x--x-x--x--x--x--------------------|
A|---10-1010-10-13-10-----------------------10-1010-10-13-10-66666666666666666-|
E|-----------------------------------------------------------------------------|
                                                             .................
e|--------|
B|--------|
G|--------|
D|--------|
A|7~------|
E|0~------|

(Guitar 2)
(0.04)
e|----------------|
B|----------------|
G|-8--9--6--8--5--|
D|-x--x--x--x--x--|
A|-9-/10-7-/9--6--|
E|----------------|

(0.47)
e|------------------------------19-17-15----|
B|12b-10-------15b--------15h17----------17-|
G|-------12~-------14-16--------------------|
D|------------------------------------------|
A|------------------------------------------|
E|------------------------------------------|

e|-----------------------------------19-17-15------|
B|12-10--------------15b-------15h17----------17---|
G|------12-12b-12b-------14-16---------------------|
D|-------------------------------------------------|
A|-------------------------------------------------|
E|-------------------------------------------------|

e|--------------------------------------|
B|--------------------------------------|  (x2)
G|4-4-4-4-4-4-4-4-4-4-4-4-4-4-4-4-------|
D|5-5-5-5-5-5-5-5-5-5-5-5-5-5-5-5-------|
A|3-3-3-3-3-3-3-3-6-6-6-6-7-7-7-7-------|
E|--------------------------------------|

e|-----------------------|
B|-----------------------|  (x4)
G|-----------------------|
D|-----------------------|
A|-----------------------|
E|5-5-555-7-7-5-7--------|
  . . ... . . . .
 
 (3.09)
e|151515151515151515151515-141414141414141414141414-----------------------------------------------|
B|x-x-x-x-x-x-x-x-x-x-x-x--x-x-x-x-x-x-x-x-x-x-x-x--12121212121212121212-151515151515151515151515-|
G|121212121212121212121212-111111111111111111111111-x-x-x-x-x-x-x-x-x-x--x-x-x-x-x-x-x-x-x-x-x-x--|
D|--------------------------------------------------9-9-9-9-9-9-9-9-9-9--121212121212121212121212-|
A|------------------------------------------------------------------------------------------------|
E|------------------------------------------------------------------------------------------------|

e|151515151515151515151515-141414141414141414141414-8b-8b-8b-8b-8b-8b-8b--11b11b11b11b11b11b------|
B|x-x-x-x-x-x-x-x-x-x-x-x--x-x-x-x-x-x-x-x-x-x-x-x--12b12b12b12b12b12b12b-15b15b15b15b15b15b------|
G|121212121212121212121212-111111111111111111111111-----------------------------------------------|
D|------------------------------------------------------------------------------------------------|
A|------------------------------------------------------------------------------------------------|
E|------------------------------------------------------------------------------------------------|

e|-----------------------------------------------------------|
B|---15--------15----15----13--------13----13----------------|  (x2)
G|12----121212----12----10----101010----10-------------------|
D|--------------------------------------------9b~----12b~----|
A|-----------------------------------------------------------|
E|-----------------------------------------------------------|


************************************

| h  Hammer-on
| p  Pull-off
| x  Dead note
| /  Slide up
| ~  Vibrato
| .  Staccato
| b  Bend
| t  Tapping

************************************
Suggest correction
comments
print report bad tab
7 comments total. Showing first comments.
0 reply
Miquespa 10 Nov 02, 2009 06:43 AM

REALLY nice tab! Thank you, one of my favorite tracks!

0 reply
hol[ ]y tape 10 Nov 20, 2009 11:01 PM

thank you so much.

0 reply
Alexishxc1337 368 Dec 05, 2009 07:58 PM

is the whammy one or two octaves up?

guest
You may want to rate the tab now too:
select rating
Wanna post a correction for this tab? Suggest correction