Oops, an error
Loading. Please wait.

Empty The Clip The King Has Been Slain Long Live The Queen Bass Tab

1,313 views 1 this week
no commentswrite comment
1 2 3 4 5
1 last vote to show rating
add to favorites
launch autoscroll
font size
0
reset
guitar tuner
Autoscroll
slow
fast
+/-
esc
set tempo
stop
Help us to improve Ultimate-Guitar.com Take our survey!
×
Author
-------------------------------------------------------------------------------
Empty The Clip, The King Has Been Slain, Long Live The Queen - The Fall Of Troy
-------------------------------------------------------------------------------

 Tabbed by:dvanwyk
 Email:dustinvanwyk@yahoo.com

 Tuning:Standard

 Verse
G|-----------------------------------------------------------------------------------------------|
D|-----4--------4---------2--------2----4---4--4---4p7-4p7---------------------------------------|
A|22-2---2-22-2---2--44-4---4-44-4---4---5---5--5-----------2-22-2-4--4-2-0----------------------|
E|---------------------------------------------------------------------------22-2-22-2-22-2-22---|


 Pre-Chorus
G|---------------------------------------------------------------------------------|
D|-------9----12-11-9-7--------------------------9-7--12-11-9-7--------------------|
A|-----9---9-----------------------------------------------------------------------|
E|7-77-------------------22-2-22-2-22-2-22--7-77-----------------5555555-000000----|

G|--------------------------------------|
D|--------------------------------------|
A|22222222-55555555-22222222-55555555---|
E|--------------------------------------|

 Chorus
G|-----------------------------------|
D|-------------------------------7---|
A|9-9-9999-8-8-888-7-7-777--5-55-----|
E|-----------------------------------|


G|------------------------------------|
D|------------------------------------|
A|9-9-9999-8-8-888-7-7-777--2-22-4----|
E|------------------------------------|


 Verse
 Pre-Chorus
 Chorus

 Bridge x2
G|--------------------------------------------------------------------------|
D|--------------------------------------------------------------------------|
A|5-5-5-55-2-2-2-22-4-4-4-44----------5-5-5-55-2-2-2-22-4-44-4-44-4-44-444--|
E|---------------------------2-2-2-22---------------------------------------|

G|----------------------------------------------------------|
D|----------------------------------------------------------|
A|5~----2~----4~----------5~----2~----44-4-44-44-44-44-44---|
E|------------------2~--------------------------------------|

G|--------------------------------------------------------------------------|
D|--------------------------------------------------------------------------|
A|5-5-5-55-2-2-2-22-4-4-4-44----------5-5-5-55-2-2-2-22-4444444444444444----|
E|---------------------------2-2-2-22---------------------------------------|


 Pre-Chorus
 Chorus

 Outro
G|-----------------|
D|-----------------|
A|-----------------|
E|22-22-2-2--------|
Suggest correction
Give kudos to tab author, rate the tab!
1 2 3 4 5
comments
print report bad tab
guest
You may want to rate the tab now too:
select rating
Wanna post a correction for this tab? Suggest correction