Oops, an error
Loading. Please wait.

Empty The Clip The King Has Been Slain Long Live The Queen Tab

5,398 views 3 this week
1 commentread comment
1 2 3 4 5
please rate
add to favorites
launch autoscroll
font size
0
reset
how to read this tab
guitar tuner
Autoscroll
slow
fast
+/-
esc
set tempo
stop
Help us to improve Ultimate-Guitar.com Take our survey!
×
Author
--------------------------------------------------------------------------------
 Empty The Clip, The King Has Been Slain, Long Live The Queen - The Fall Of Troy
--------------------------------------------------------------------------------
 
 Tabbed by:dvanwyk
 Email:dustinvanwyk@yahoo.com

 Tuning:Standard

 Guitar 1

 Verse x2
e|---------------------------------------------------------------------|
B|---3----3--------------------55--------------------------------------|
G|---4----4----4----4-6---66---66-4---44-5--5-4-2--22-2-22-2-22-2-22---|
D|---4----4----2----2-4---44---44-x---xx-x--x-x-x--44-4-44-4-44-4-44---|
A|22---22---44---44---5-5-55-5-55-4-4-44-5--5-4-2--xx-x-xx-x-xx-x-xx---|
E|-------------------------------------------------22-2-22-2-22-2-22---|
  ..   ..   ..   ..     .    .      . 

 Pre-Chorus
e|------------------------------------------|
B|------------------------------------------|
G|777777-11-9--7-6-22-2-22-2-22-2h4p2---2---|
D|999999-12-11-9-7-44-4-44-4-44-------4-----|
A|xxxxxx-----------xx-x-xx-x-xx-------------|
E|777777-----------22-2-22-2-22-------------|

e|------------------------------------------|
B|------------------------------------------|
G|777777-11-9--7-6--6-6-6p4---1-1-11-2------|
D|999999-12-11-9-7--7-------4-2-------------|
A|xxxxxx------------7---------2-------------|
E|777777------------5---------0-------------|

e|--------------------------------------|
B|33333333--------5p7-------------------|
G|44444444-777777-----7--222222-444444--|
D|44444444-777777--------xxxxxx-xxxxxx--|
A|22222222-555555--------222222-444444--|
E|--------------------------------------|
                         ...... ....

 Chorus
e|-----------------------------------------|
B|-----------------------------------------|
G|-------------------------------77-7-66---|
D|7-7-7-777-6-6-6-666-7-7-7-777--xx-x-xx---|
A|9-9-9-999-8-8-8-888-7-7-7-777--55-5-44---|
E|-------------------------------77-7------|
    .   ...   .   ...   .   ...

e|-----------------------------------------|
B|-----------------------------------------|
G|-------------------------------22-2-44---|
D|7-7-7-777-6-6-6-666-7-7-7-777--xx-x-xx---|
A|9-9-9-999-8-8-8-888-7-7-7-777--22-2-44---|
E|-----------------------------------------|
    .   ...   .   ...   .   ...


 Verse
e|------------------------------------------------------------------------------|
B|---------------------------------55-------------------------------------------|
G|---2~----2~----4~----4~-6---66---66-4-4-44-5--5-4-2--22-2-22-2-22-2h4p2---2---|
D|------------------------4---44---44-x-x-xx-x--x-x-x--44-4-44-4-44-------4-----|
A|2~----2~----4~----4~----5-5-55-5-55-4-4-44-5--5-4-2--xx-x-xx-x-xx-------------|
E|-----------------------------------------------------22-2-22-2-22-------------|
                            .    .  

e|--------------------------------------------------------------------|
B|---------------------------------55-------[8]-----------------------|
G|---2~----2~----4~----4~-6---66---66-4-4-44----5-4-2--22-2-22-2-22---|
D|------------------------4---44---44-x-x-xx----x-x-x--44-4-44-4-4----|
A|2~----2~----4~----4~----5-5-55-5-55-4-4-44----5-4-2--xx-x-xx-x-xx---|
E|-----------------------------------------------------22-2-22-2-22---|
                            .    .  
 

 Pre-Chorus

 Chorus
 
 Bridge x2
e|---------------------------------------------------------------------|
B|---------------------------------------------------------------------|
G|6-6-6-6-2-2-2-2-4-4-4-4-2-2-2-2--6-6-6-6-2-2-2-2----4----4----4-444--|
D|4-4-4-4-x-x-x-x-x-x-x-x-4-4-4-4--4-4-4-4-x-x-x-x----x----x----x-xxx--|
A|5-5-5-5-2-2-2-2-4-4-4-4-x-x-x-x--5-5-5-5-2-2-2-2-44-4-44-4-44-4-444--|
E|------------------------2-2-2-2--------------------------------------|
                                                   ..   ..   ..

e|---------------------------------------------------------|
B|---------------------------------------------------------|
G|6~----2~----4~---2~----6~----2~--------4-44-44-44-44-44--|
D|4~----x-----x----4~----4~----x---------x-xx-xx-xx-xx-xx--|
A|5~----2~----4~---x-----5~----2~-----44-4-44-44-44-44-44--|
E|-----------------2~--------------------------------------|

e|-----------------------------------------------------------|
B|-----------------------------------------------------------|
G|6-6-6-6-2-2-2-2-4-4-4-4-2-2-2-2--6-6-6-6-2-2-2-2-44444444--|
D|4-4-4-4-x-x-x-x-x-x-x-x-4-4-4-4--4-4-4-4-x-x-x-x-xxxxxxxx--|
A|5-5-5-5-2-2-2-2-4-4-4-4-x-x-x-x--5-5-5-5-2-2-2-2-44444444--|
E|------------------------2-2-2-2----------------------------|
                                                   ........ 


 Pre-Chorus

 Chorus

e|-----------------|
B|-----------------|
G|2-22-22-22-22----|
D|4-44-44-44-44----|
A|x-xx-xx-xx-xx----|
E|2-22-22-22-22----|

===============================================================================

 Guitar 2


 Chorus
e|------9----------9-------------------------|
B|---10---10----10---10---10-12--10~--12~----|
G|11---------10---------9--------------------|
D|-------------------------------------------|
A|-------------------------------------------|
E|-------------------------------------------|

e|------9----------9----------------------------------------|
B|---10---10----10---10---10--17p15p14-12-14-12--10/12/10---|
G|11---------10---------9-----------------------------------|
D|----------------------------------------------------------|
A|----------------------------------------------------------|
E|----------------------------------------------------------|

 Solo
e|-------------------------------------1010-9/--13~-1313131313131313-14141414141414-161616161616-|
B|---------------10b-10~-------------------------------------------------------------------------|
G|6b~-6-9b-7b-6b----------14-13-9/11~------------------------------------------------------------|
D|-----------------------------------------------------------------------------------------------|
A|-----------------------------------------------------------------------------------------------|
E|-----------------------------------------------------------------------------------------------|

e|17-16----17-16----17-16----17-16----17-16----17-16------------------------------|
B|------19-------19-------19-------19-------19-------19--1717171717b-15-14h15p14--|
G|--------------------------------------------------------------------------------|
D|--------------------------------------------------------------------------------|
A|--------------------------------------------------------------------------------|
E|--------------------------------------------------------------------------------|

e|--------------------------------------|
B|14--15-14--12-10h12p10--1212121212b---|
G|--------------------------------------|
D|--------------------------------------|
A|--------------------------------------|
E|--------------------------------------|
Suggest correction
What's this?
You can suggest a correction to this tab. Community and Mods will review your correction and vote to approve or reject it.
comments
We did not receive enough feedback on this tab! Please rate:
print report bad tab
1 2 3 4 5
1 comment total.
+1 reply
hol[ ]y tape 51 wrote on February 11 2010, 03:34 am

You got the right idea.

guest
You may want to rate the tab now too:
select rating
Please do not post tabs as comments. Select "correction" instead!