Oops, an error
Loading. Please wait.

Excreations Bass Tab

version 1
version 1

Whole song

Interactive

6,069 views 9 this week
1 commentread comment
1 2 3 4 5
excellent!
x 3
add to favorites
launch autoscroll
font size
0
reset
guitar tuner
Tab Pro tools
  • play this tab
  • loop segment
  • change instrument
  • show fretboard
  • metronome
×
Best way to learn
"Excreations"
Autoscroll
slow
fast
+/-
esc
set tempo
stop
Contributor
Difficulty
Tuning
intermediate
D A D G B E
The Fall of Troy-Ex-creations
Drop D -DADG

Its the best i can do and hate mail or correcttions email me at bpc1331@yahoo.com

Intro
|-----------------------------------|
|-----------------------------------|
|-5~--1~----5~-----------1-----1----|
|-------3~---------3-3-----0-0---0-0|

|------------------------------------------------------|
|------------------------------------------------------|
|---5-3-0-7--5-3-0-7-7-1-1-1-1-1-1-1-1-----------------|
|-0--------0---------------------------3-3-3-3-3-2-2-2-|

|----------------------------------------|
|----------------------------------------|
|--5-3-0-7---5-3-0-7-1-1------1-----1----|
|-0--------0-------------3-3----0-0---0-0|

|------------------------------------------------------|
|------------------------------------------------------|
|---5-3-0-7--5-3-0-7-7-1-1-1-1-1-1-1-1-----------------|
|-0--------0---------------------------3-3-3-3-3-2-2-2-|

|----------------------------------------|
|----------------------------------------|
|--5-3-0-7---5-3-0-7-1-1------1-----1----|
|-0--------0-------------3-3----0-0---0-0|
Chorus
|-------------------------------------------------------|
|-------------------------------------------------------|
|---------------------------------------------1-----1---|x2
|0----8--6-44440---12-12-6-6---0----8-6-11110---0-0--0-0|

|--------------------------------------------------------|
|--------------------------------------------------------|
|-------------5-5-5-5-5-5-5-5-5-5-5-1-1-1-1-1-1-1-1-1-1-1|
|0---0---0---0-------------------------------------------|

|-----------------------------------------------|
|-----------------------------------------------|
|3-3-3-3-3-3-3-3-3-3-3-0-0-0-0-0-0-4-4-4-4-4--5~|
|-----------------------------------------------|
Breakdown
|------------------------------------------------|
|--------3-5------3-2-5--------------------------|
|5-5-5-5----1-1-1-------3-3-3-3-3-3-0-0-0-0-0-0--|
|------------------------------------------------|

|-----------------------------------------------|
|-----------------------------------------------|
|------------------------------------1-1-1-0-0-3|
|5-5-5-5-5-5-3-3-3-3-3-3-1-1-1-1-1-1------------|

|------------------------------------------------|
|------------------------------------------------|
|5-5-5-5-5-5-1-1-1-1-1-1-3-3-3-3-3-3-0-0-0-0-0-0-|
|------------------------------------------------|

|-----------------------------------------------|
|-----------------------------------------------|
|------------------------------------1-1-1------|
|5-5-5-5-5-5-3-3-3-3-3-3-1-1-1-1-1-1------0/15--|

Chorus

Bridge
|----------------------------------------------|
|4----4----------6p0--2420------4----4---------|x2
|-------------5------------4540----------------|
|---4----4--2---0------------------4---4--2--0~|

|-------------|
|4---4--------|
|-------------|
|--4---4-2--0~|

|------------------------------------------------------|
|-----------------------------------7---5---3----2-----|x4
|-------------------------------------8---7----5---4---|
|000000000---3200530036'--000000000--------------------|

|-----------------------------|
|-----------------------------|
|---------------------------5~|x2
|3-111111-000---3-111111-00---|

|--------------|
|--------------|
|--------------|
|3~--1~--00-0-0|






comments
We did not receive enough feedback on this tab! Please rate:
print report bad tab
1 2 3 4 5
1 comment total.
0 reply
debardeleben wrote on January 16 2008, 10:25 pm

overall, pretty good man. thanks.

if i sit down with headphones i might can correct some stuff but this is a pretty
damn good tab

I want to post or [tab]
guest
You may want to rate the tab now too:
select rating
Please do not post tabs as comments. Select "correction" instead!