Oops, an error
Loading. Please wait.

Fcpsitsgepgepgep Tab

version 1
version 1

Whole song

Interactive

14,650 views 9 this week
9 commentsread comments
1 2 3 4 5
excellent!
x 6
add to favorites
launch autoscroll
font size
0
reset
how to read this tab
guitar tuner
Tab Pro tools
  • play this tab
  • loop segment
  • change instrument
  • show fretboard
  • metronome
×
Best way to learn
"Fcpsitsgepgepgep"
Autoscroll
slow
fast
+/-
esc
set tempo
stop
Contributor
-----------------------------------------------------------------
The Fall of Troy - F.C.P.S.I.T.S.G.E.P.G.E.P.G.E.P.
-----------------------------------------------------------------

Intro/Verse (with delay)            Verse variation fill
e|---------------------------------|---------------------10-12------|
B|------------------12b13-12-10----|------------------12------------|
G|-12-9-7-5--12-9-7-------------12-|-12-9-7-5--12-9-7---------------|
D|-10-7-5-3--10-7-5----------------|-10-7-5-3--10-7-5---------------|
A|-12-8-7-5--12-8-7----------------|-12-8-7-5--12-8-7---------------|
E|---------------------------------|--------------------------------|

Chorus                                              "transition"
e|--------|-------15-|---------|---------|----------|----------15---|
B|-10-8---|-12-13----|-5-6-8---|------13-|-------15-|----15-------15|
G|------9-|----------|-------5-|-9-10----|-11-12----|-12----12------|
D|--------|----------|---------|---------|----------|---------------|
A|--------|----------|---------|---------|----------|---------------|
E|--------|----------|---------|---------|----------|---------------|

Chorus variation 
e|-17-15--------|
B|-------17-----|
G|--------------| after this return to regular chorus riff
D|--------------|
A|--------------|
E|--------------|

Chorus end
e|----------------------------|
B|------13---13---13---13/15~-|
G|-9-10----9----9----9--------|
D|----------------------------|
A|----------------------------|
E|----------------------------|

Bridge (with delay)                    end with this:
e|------------8----|------------------|--------------|
B|------10------10-|-----------8------|--------------|
G|---10----10------|------9------9----|-10-9---------|
D|-0---------------|---10---10-----10-|------10------|
A|-----------------|-0----------------|--------------|
E|-----------------|------------------|--------------|

Bridge variation
e|------------8----13-------8-------|
B|------10------10----10------10----|
G|---10----10------------10------10-|
D|-0--------------------------------|
A|----------------------------------|
E|----------------------------------|

Bridge (other guitar part)
e|----xxxxx----xxxxx----xxxxx----------|
B|-10-xxxxx-10-xxxxx----xxxxx----------|
G|-10-xxxxx-10-xxxxx-9--xxxxx-9--9--9--| keep chord formation when scratching
D|-12-xxxxx-12-xxxxx-10-xxxxx-10-10-10-|
A|----xxxxx----xxxxx-12-xxxxx-12-12-12-|
E|----xxxxx----xxxxx----xxxxx----------|

e|----10h13-13-13-10h13----10h13-13-13-10/8----------------------|
B|-10-------------------10---------------------10h13-13-13-10h13-|
G|-10-------------------10------------------9--------------------|
D|-12-------------------12------------------10-------------------|
A|------------------------------------------12-------------------|
E|---------------------------------------------------------------|

Bridge end
e|---------------|---------------|---------------------------------|
B|---------------|---------------|---------------------------------|
G|-----------5---|---------------|---------------------------------|
D|---------3---3-|---------------|-----------2----2-3--------------|
A|-5-5-5-5-------|-5-5-5-5-3-5-3-|---------3---3------2------------|
E|---------------|---------------|-5-5-5-5-------------------------|

e|----------------------|----------------------|---------------------|
B|----------------13----|----------------------|---------------------|
G|-------------10----10-|----------------------|----------------9----|
D|-12-12-12-12----------|-12-12-12-12-10-12-10-|-------------10---10-|
A|----------------------|----------------------|-12-12-12-12---------|
E|----------------------|----------------------|---------------------|


e|------------|
B|------------|
G|-9-10-9--8~-|
D|------------|
A|---------7~-|
E|---------0~-|

Buildup
e|------------|
B|------------|
G|-8----------| palm mute this, gradually releasing til end
D|------------|
A|-7----------|
E|-0----------|

"Breakdown"
e|---------------|-x----x----x----x----x-----|
B|---------------|-x----x----x----x----x-----|
G|-8-----8-----9-|-x-11-x-11-x-14-x-14-x-14/-|
D|---------------|-x----x----x----x----x-----|
A|-7-----7-----8-|-x-10-x-10-x-13-x-13-x-13/-|
E|---0-0---0-0---|-0----0----0----0----0-----|

variation
e|-----------------|-------------5*-|
B|-----------------|-------------5*-|
G|-8-----8-----/9~-|-8-----8--------|
D|-----------------|----------------|
A|-7-----7---------|-7-----7--------|
E|---0-0---0-0-----|---0-0---0-0----|

"Solo" (last time, slide the 9)
e|----------------------------------|
B|----------------------------------|
G|-8-0-0-8-0-0-8-0-0-8-0-0--9-0-9-0-|
D|----------------------------------|
A|----------------------------------|
E|----------------------------------|

"Solo" variation (again, slide the 21)
e|----------------------------------------|
B|----------------------------------------|
G|-20-0-0-20-0-0-20-0-0-20-0-0--21-0-21-0-|
D|----------------------------------------|
A|----------------------------------------|
E|----------------------------------------|

Ending
e|--------------------------|
B|--------------------------|
G|-11-11-11-11--14-14-14-14-|
D|--------------------------|
A|-10-10-10-10--13-13-13-13-|
E|--------------------------|

tab is kinda messy, but you should know where the parts go.

Song structure:

Intro 
Verse
Chorus
Intro
Verse
Chorus
Bridge
Buildup
Breakdown
Chorus
Intro 
comments
print report bad tab
9 comments total. Showing first comments.
0 reply
MCRrocks wrote on April 7 2006, 09:16 pm

In case no one here knows what that stands for, it's actually:
**** condoms pre-marital sex is the shit get em pregnant get em pregnant get em pregnant.
heh..

+2 reply
StuartR wrote on September 9 2006, 03:35 pm

no, it's not. The band have never told what the letter stand for.

0 reply
remy2828 wrote on October 16 2006, 02:39 am

hes right. how do you know the band never told anyone?

I want to post or [tab]
guest
You may want to rate the tab now too:
select rating
Please do not post tabs as comments. Select "correction" instead!