Oops, an error
Loading. Please wait.

Fcpsitsgepgepgep Bass Tab

version 2
version 2

Whole song

Interactive

1,483 views 1 this week
1 commentread comment
1 2 3 4 5
excellent!
x 4
add to favorites
launch autoscroll
font size
0
reset
guitar tuner
Autoscroll
slow
fast
+/-
esc
set tempo
stop
Help us to improve Ultimate-Guitar.com Take our survey!
×
#----------------------------------PLEASE NOTE---------------------------------#
#This file is the author's own work and represents their interpretation of the #
#song. You may only use this file for private study, scholarship, or research. #
#------------------------------------------------------------------------------#

F.C.P.S.I.T.S.G.E.P.G.E.P.G.E.P. (Bassline)
As recorded by The Fall of Troy

Transcribed by Ara Yessayan
	

Music by The Fall of Troy

Gtr I (E A D G) - 'Untitled'

 Intro
  Q=146
 4/4
  Gtr I
  Wx8
|--------|
|--------|
|--------|
|--------|


    $
     E  E  E E E E E E   E E E E E E E E    E  E  E E E E E E   E E H.
||--------12-----9-----|-----7-----5-----|-------12-----9-----|-7----------||
||o----10------7---7---|---5-----3---3---|----10------7-----5-|-----------o||
||o-12-------8-------8-|-7-----5-------5-|-12-------8-----7---|-----------o||
||---------------------|-----------------|--------------------|------------||


   Verse
     E  E  E E E E E E   E E E E E E E E    E  E  E E E E E E   E E H.     4x
||--------12-----9-----|-----7-----5-----|-------12-----9-----|-7----------||
||o----10------7---7---|---5-----3---3---|----10------7-----5-|-----------o||
||o-12-------8-------8-|-7-----5-------5-|-12-------8-----7---|-----------o||
||---------------------|-----------------|--------------------|------------||


   Chorus
    $$
    E E E E E E E E   E E E E Q  Q    E E E E E E E E   E E E E E E E E
||------------------|---------------|-----------------|------------------|
||o-----------------|---------------|-----------------|------------------|
||o-----------------|------------2--|-3-3-3-3-3-3-3-3-|-3-3-3-3-3s5-5-5--|
||--5-5-5-5-0-5-5-5-|-5-5-5-5-5-----|-----------------|------------------|


                                                            D.S.
                                                            D.S.
  E. E. E Q.   E   E. E. E H      Q  E E E E E E   E E E E Q  Q
|----------------|--------------|----------------|----------------||
|----------------|--------------|----------------|---------------o||
|----------------|--------------|-3--3-3-3-3-3-3-|-3s5-5-5-5--5--o||
|-1--1--1-1----1-|-1--1--1-1----|----------------|----------------||


 Bridge
 3/4                        3/8
  W        W        W        W
|--------|--------|--------|-----|
|--------|--------|--------|-----|
|--------|--------|--------|-----|
|--------|--------|--------|-----|


   3/4                                             3/8
    E S S E E E E   E S S E E E E   E S S E E E E   E E E  7x
||------------5---|---------------|---------------|--------||
||o---------3---3-|---------------|-----------2---|-2-3-2-o||
||o-5-5-5-5-------|-5-5-5-5-3-5-3-|-0-0-0-0-3---3-|-------o||
||----------------|---------------|---------------|--------||


 Breakdown
 4/4
  W          W          W           E E E  E E E  Q
|----------|----------|----------|-------------0-20---|
|----------|----------|----------|----0---19----------|
|----------|----------|----------|-18---0----0--------|
|----------|----------|----------|--------------------|


     E E E  E E E  Q     E E E  E E E  Q   7x
||--------------0-20--|-------------0-20---||
||o----0---19---------|----0---19---------o||
||o-18---0----0-------|-18---0----0-------o||
||--------------------|--------------------||


   Solo
    E E E E E E Q    E E E E E E Q
||-----------------|----------------|
||o----------------|----------------|
||o-6-0-0-6-0-0-7--|-6-0-0-6-0-0-7--|
||-----------------|----------------|


  E E E E E E Q    S E S E S E S E S S S S   3x
|----------------|---------------------------||
|----------------|---------x-7-x-7-7-7-7-7--o||
|-6-0-0-6-0-0-7--|-x-9-x-9------------------o||
|----------------|---------------------------||


                                                       D.S.S. al Coda
  E E E E E E Q    E E E E E E Q    E E E E E E Q    E E E E E E E E
|----------------|----------------|----------------|-------------------||
|----------------|----------------|----------------|---------7-7-7-7---||
|-6-0-0-6-0-0-7--|-6-0-0-6-0-0-7--|-6-0-0-6-0-0-7--|-9-9-9-9-----------||
|----------------|----------------|----------------|-------------------||


 Out-Chorus
  &
  E E E E E E E E   E E E E Q  Q    E E E E E E E E   E E E E E E E E
|-----------------|---------------|-----------------|-----------------|
|-----------------|---------------|-----------------|-----------------|
|---------7-------|------------2--|-3-3-3-3-3-3-3-3-|-3-3-3-3-3s5-5-5-|
|-5-5-5-5---5-5-5-|-5-0-5-5-5-----|-----------------|-----------------|


  E. E. E E E E E   E. E. E H      E E E E E E E E   E E E E E E Q
|-----------------|--------------|-----------------|----------------|
|-----------------|--------------|-----------------|----------------|
|-----------------|--------------|-3-3-3-3-3-3-3-3-|-5-5-5-5-5-5-5--|
|-1--1--1-1-1-1-1-|-1--1--1-1----|-----------------|----------------|


   Outro
     E  E  E E E E E E   E E E E E E E E    E  E  E E E E E E   E E H.
||--------12-----9-----|-----7-----5-----|-------12-----9-----|-7----------||
||o----10------7---7---|---5-----3---3---|----10------7-----5-|-----------o||
||o-12-------8-------8-|-7-----5-------5-|-12-------8-----7---|-----------o||
||---------------------|-----------------|--------------------|------------||



Duration Legend
---------------
W - whole; H - half; Q - quarter; E - 8th; S - 16th; T - 32nd; X - 64th; a - acciaccatura
+ - note tied to previous; . - note dotted; .. - note double dotted
Uncapitalized letters represent notes that are staccato (1/2 duration)
Irregular groupings are notated above the duration line
Duration letters will always appear directly above the note/fret number it represents the
duration for.  Duration letters with no fret number below them represent rests.  Multi-
bar rests are notated in the form Wxn, where n is the number of bars to rest for.  Low
melody durations appear below the staff

Tablature Legend
----------------
 h   - hammer-on
 p   - pull-off
 b   - bend
 pb  - pre-bend
 r   - bend release (if no number after the r, then release immediately)
 /\  - slide into or out of (from/to "nowhere")
 s   - legato slide
 S   - shift slide
 - natural harmonic
[n]  - artificial harmonic
n(n) - tapped harmonic
 ~   - vibrato
 tr  - trill
 T   - tap
 TP  - trem. picking
 PM  - palm muting
\n/  - tremolo bar dip; n = amount to dip
 \n  - tremolo bar down
 n/  - tremolo bar up
/n\  - tremolo bar inverted dip
 =   - hold bend; also acts as connecting device for hammers/pulls
 <> - volume swell (louder/softer)
 x   - on rhythm slash represents muted slash
 o   - on rhythm slash represents single note slash

Misc Legend
-----------
 |  - bar
||  - double bar
||o - repeat start
o|| - repeat end
*|  - double bar (ending)
 :  - bar (freetime)
 $  - Segno
 &  - Coda
Tempo markers -  = BPM(8/16=s8/s16), where s8 = swing 8ths, s16 = swing 16ths

Suggest correction
comments
print report bad tab
1 comment total.
+1 reply
dale2022 52 wrote on November 22 2009, 09:50 pm

this one is way better than the other version.
thanks!

guest
You may want to rate the tab now too:
select rating
Please do not post tabs as comments. Select "correction" instead!