Oops, an error
Loading. Please wait.

Ghostship Part 1 Bass Tab

version 1
version 1

Whole song

Interactive

2,611 views 1 this week
5 commentsread comments
1 2 3 4 5
accurate
x 3
add to favorites
launch autoscroll
font size
0
reset
guitar tuner
Autoscroll
slow
fast
+/-
esc
set tempo
stop
Help us to improve Ultimate-Guitar.com Take our survey!
×
0:07
G|------5--------5--------5-------|
D|---7--------7--------7-----6~~--|
A|0--------0--------0-------------|
E|--------------------------------|x16


1:35
G|----------------5-----------------------------------5-----------------------|
D|-------7-----------------7-----------------7--------------------------------|
A|0--0-0---6--6-6---0--0-0------------0--0-0---6--6-6---0--0-0-0--------------|
E|--------------------------5555555555---------------------------8-5-4-5-7-8--|

G|----------------5-----------------------------------5--------------------------|
D|-------7-----------------7-----------------7-----------------------------------|
A|0--0-0---6--6-6---0--0-0------------0--0-0---6--6-6---0--0-0-0-------------0~--|
E|--------------------------5555555555---------------------------8-5-4-5-7-8-----|


2:00
G|--------------------------4--4--4--4--4--------------12--10--9---4---4--4--4----|
D|--10--9h10--10--9--7-9-7-------------------10--9h10-----------------------------|
A|0------------------------6--6--6--6--6---0---------------------06--6--6--6--76--|
E|--------------------------------------------------------------------------------|x2


2:21
G|----------------5-----------------------------------5-----------------------|
D|-------7-----------------7-----------------7--------------------------------|
A|0--0-0---6--6-6---0--0-0------------0--0-0---6--6-6---0--0-0-0--------------|
E|--------------------------5555555555---------------------------8-5-4-5-7-8--|x2


2:40
G|--------------------------4--4--4--4--4--------------12--10--9---4---4--4--4----|
D|--10--9h10--10--9--7-9-7-------------------10--9h10-----------------------------|
A|0------------------------6--6--6--6--6---0---------------------06--6--6--6--76--|
E|--------------------------------------------------------------------------------|x2


3:01
G|----------------5-----------------------------------5-----------------------|
D|-------7-----------------7-----------------7--------------------------------|
A|0--0-0---6--6-6---0--0-0------------0--0-0---6--6-6---0--0-0-0--------------|
E|--------------------------5555555555---------------------------8-5-4-5-7-8--|x2


3:17
G|------------------------|
D|------------------------|
A|0--0--0--0--6--6--6--6--|
E|5--5--5--5--5--5--5--5--|x2

G|------------------------|
D|------------------------|
A|0--0--0--0--0--0--0--0--|
E|5--5--5--5--6--6--6--6--|x3

G|---------------------------|
D|---------------------------|
A|0--0--0--0--0--0-----------|
E|5--5--5--5--6--6--1~~/15\--|

G|-------------------------------------------------|
D|-------------------------------------------------|
A|-------------------------------------------------|
E|5-555-5-555-5-555-5-555-6-666-6-666-6-666-6-666--|x2

                    or

       G|-------------------------------------------------------------------------|
       D|-------------------------------------------------------------------------|
       A|-------------------------------------------------------------------------|
       E|5-5/12\5-5-5/12\5-5-5/12\5-5-5/12\5-6-6/13\6-6-6/13\6-6-6/13\6-6-6/13\6--|x2


G|-------------------------------------------------------------|
D|-------------------------------------------------------------|
A|-------------------------------------------------------------|
E|5--5--5--5--6--6--6--6--5--5--5--5--6-6-6-6-6-6-6-6-6-66666--|


4:20
G|----------------------------------------------------|
D|----------------------------------------------------|
A|0/7\1----1-1-0/7\1----1---0/7\1----1-1-0/7\1--1/10--|
E|-----3-3----------3-3----------3-3----------3-------|

G|-------------------------------------------------|
D|-------------------------------------------------|
A|0/7\1----1-1-0/7\1----1---0/7\1----1-1-0/7\1--1--|
E|-----3-3----------3-3----------3-3----------3----|


4:37
G|----------------------------------------------------------------------|
D|----------------------------------------------------------------------|
A|----------------------------------------------------------------------|
E|--------------------------2-2-2---------------------------2--2--2--2--|

G|----------------------------------------------------------------------|
D|----------------------------------------------------------------------|
A|6---------------6---------------6---------------6---------------------|
E|-686020650568650-6860306502-2-2--686030650568650-6860306502--2--2--2--|

G|-------------------------------------------------------------|
D|-------------------------------------------------------------|
A|6-------------------------------6----------------------------|
E|--6-8-6-0-3-0-6-5-0-5-6-8-6-5-0---6-8-6-0-3-0-6-5-0-2--2--2--|

G|---------------------------------------------------------------------------|
D|---------------------------------------------------------------------------|
A|6-------------------------------6------------------------------------------|
E|--6-8-6-0-3-0-6-5-0-5-6-8-6-5-0---6-8-6-0-3-0-6-5-0-2--2--2--2--2--2--2--2-|

G|-----------------|
D|-----------------|
A|-----------------|
E|--2--2--2--2--2--|


5:30
G|----------------------------------------------------------------------------------|
D|----------------------------------------------------------------------------------|
A|7~--------------------------7~-------7~--------------------------7777777777777777-|
E|---------8~-------10~-------------------------8~-------10~------------------------|

G|---------------------------------------------------------------------------------|
D|---------------------------------------------------------------------------------|
A|7777777777777777------------------------------------------------7777777777777777-|
E|----------------888888888888888810101010101010101010101010101010-----------------|x2

G|----------------------------|
D|----------------------------|
A|7~--------------------------|
E|---------8~-------10~-------|

Suggest correction
What's this?
You can suggest a correction to this tab. Community and Mods will review your correction and vote to approve or reject it.
comments
We did not receive enough feedback on this tab! Please rate:
print report bad tab
1 2 3 4 5
5 comments total. Showing first comments.
0 reply
hxc_pwn_pirate 23 wrote on August 15 2007, 09:37 pm

pretty damn accurate, thanks for putting it up.

0 reply
choke383 1,867 wrote on November 28 2007, 02:11 pm

call that ripping someone off. For the 3rd time of saying this.. nice effort man. . .

-2 reply
fatal218 109 wrote on May 10 2008, 09:01 pm

all the notes are wrong in the intro

its

G|---------------------------------|
D|-----7--------7-------7----------|
A|---5-------5--------5-----6~~----|
E|0--------0-------0---------------|x16

guest
You may want to rate the tab now too:
select rating
Please do not post tabs as comments. Select "correction" instead!