Oops, an error
Loading. Please wait.

Ghostship Part 1 Tab

version 2
version 2

Whole song

Interactive

1,434 views 3 this week
1 commentread comment
1 2 3 4 5
please rate
add to favorites
launch autoscroll
font size
0
reset
how to read this tab
guitar tuner
Tab Pro tools
  • play this tab
  • loop segment
  • change instrument
  • show fretboard
  • metronome
×
Best way to learn
"Ghostship Part 1"
Autoscroll
slow
fast
+/-
esc
set tempo
stop
Contributor
Difficulty
intermediate
This is the part it plays in the first part, as the bass is going:
e|-15-10h12---10-12-12h13-12-10-12---------------------------------------------|
B|------------------------------- -10---10-10h12-10-8-10-----------------------|
G|-------------------------------------------------------9---9-9h10-9-7-9/2----|
D|-----------------------------------------------------------------------------|
A|-----------------------------------------------------------------------------|
E|-----------------------------------------------------------------------------|

e|-------------------------------------------------------|
B|-------------------------------------------------------|
G|-9-9-9-9-9-9-7-7-7-7-7-7-10-10-10-10-10-10-9-9-9-9-9-9-|
D|-------------------------------------------------------|
A|-------------------------------------------------------|
E|-------------------------------------------------------|

e|-12-12-12-12-12-12-10-10-10-10-10-10-13--13--13-13--15--15--15--15--15--15-|
B|-x--x--x--x--x--x--x--x--x--x--x--x--x---x----x--x---x---x---x---x---x---x-|
G|-9--9--9--9--9--9--7--7--7--7--7--7--10--10--10--10--12--12--12--12--12-12-|
D|---------------------------------------------------------------------------|
A|---------------------------------------------------------------------------|
E|---------------------------------------------------------------------------|

This part, he just hand mutes all the strings and strokes with the pick, then Thomas
this part in synchronization with the drums...

e|---------------------------------------------------------------------------|
B|---------------------------------------------------------------------------|
G|-5----5----5-5-5-----------------------------------------------------------|
D|-7----7----7-7-7-----------------------------------------------------------|
A|-0----0----0-0-0-----------------------------------------------------------|
E|---------------4-----------------------------------------------------------|

Then he does some fill / solo thingy, and goes into the Chorus:

e|--------------------------------------------------------------------------|
B|--------------------------------------------------------------------------|
G|-----9-----14-------------------------------------------------------------|
D|-7-7-x-7-7--x-7-7-7-------------------------------------------------------|
A|-0-0-7-6-6-12-0-0-0-x-x-x-x-x-x-x-x---------------------------------------|
E|--------------------x-x-x-x-x-x-x-x---------------------------------------|

e|---------------------15-12-15----------------------------------------------|
B|------------------------------13-10-9-10-12-13-----------------------------|
G|-----9-----14--------------------------------------------------------------|
D|-7-7-x-7-7--x-7-7-7--------------------------------------------------------|
A|-0-0-7-6-6-12-0-0-0--------------------------------------------------------|
E|---------------------------------------------------------------------------|

After that, Andrew does a fill on the drums, and Thomas goes into the Verse

e|------17p0---15p0--13p0--12p0--10p0------13p0---12p0--10p0-----------------|
B|---------------------------------------------------------12h13p012h15p12---|
G|-14-14----14-----14-----14----14----13-13-----13----13---------------------|
D|---------------------------------------------------------------------------|
A|---------------------------------------------------------------------------|
E|---------------------------------------------------------------------------|

Chorus:
e|--------------------------------------------------------------------------|
B|--------------------------------------------------------------------------|
G|-----9-----14-------------------------------------------------------------|
D|-7-7-x-7-7--x-7-7-7-------------------------------------------------------|
A|-0-0-7-6-6-12-0-0-0-x-x-x-x-x-x-x-x---------------------------------------|
E|--------------------x-x-x-x-x-x-x-x---------------------------------------|

e|---------------------15-12-15----------------------------------------------|
B|------------------------------13-10-9-10-12-13-----------------------------|
G|-----9-----14--------------------------------------------------------------|
D|-7-7-x-7-7--x-7-7-7--------------------------------------------------------|
A|-0-0-7-6-6-12-0-0-0--------------------------------------------------------|
E|---------------------------------------------------------------------------|


Verse II:                                                                b
e|-----12-15-17-15-12----12-15-17-15-12-19-17-15-17-15-12-15-12-10-12-10-7-5-|
B|--15----------------15-----------------------------------------------------|
G|---------------------------------------------------------------------------|
D|---------------------------------------------------------------------------|
A|---------------------------------------------------------------------------|
E|---------------------------------------------------------------------------|


*Chorus*

bridge
e|-----------------------------------------------------------------------|
B|-----------------------------------------------------------------------|
G|----4-4--5-4-4--5-4-4--5-6-5-4---5-5--7-5-5--7-5-5-7-9-7-5-4-----------|
D|----7-7--7-7-7--7-7-7--7-7-7-7---7-7--7-7-7--7-7-7-7-7-7-7-7-----------|
A|----0-0--0-0-0--0-0-0--0-0-0-0---0-0--0-0-0--0-0-0-0-0-0-0-0-----------|
E|-----------------------------------------------------------------------|
The rest of the bridge is just variations on this.
   NH             NH             NH                NH = natural harmonic
e|-12-------------5--------------7-------------------------------------------|
B|-12-------------5--------------7-------------------------------------------|
G|-12-------------5--------------7-------------------------------------------|
D|---------------------------------------------------------------------------|
A|---------------------------------------------------------------------------|
E|---------------------------------------------------------------------------|

Bridge II (?)
e|---------------------------------------------------------------------------|
B|---------------------------------------------------------------------------|
G|---------------------------------------------------------------------------|
D|-7777777777777777-------7777777777777--------------------------------------|
A|---------------------------------------------------------------------------|
E|-5553335553336666-------5553335553336--------------------------------------|

BREAKDOWN
e|--------------------------------------------------------------------------|
B|--------------------------------------------------------------------------|
G|--------------------------------------------------------------------------|
D|--------------------------------------------------------------------------|
A|-6-------------------6-------------------------4--4--4--------------------|
E|--565030650568650-----5650306-5-0-5-6-8-6-5-0--2--2--2--------------------|

e|------------------------------------------------------------------------|
B|------------------------------------------------------------------------|
G|------------------------------------------------------------------------|
D|-8----------------------------------------------------------------------|
A|-67-8-7-0-5-0-8-7-0-7-8-10-8-7-0---4--4--4--4---------------------------|
E|--5-6-5-0-3-0-6-5-0-5-6-8 -6-5-0---2--2--2--2---------------------------|

I'm not sure if these last parts are 100%...
e|-7--------------3------------5-----------0---0--0--0--------------------|
B|-8--------------5------------5-----------3----3--3--3-------------------|
G|-9--------------5------------7-----------4-----4--4--4------------------|
D|------------------------------------------------------------------------|
A|------------------------------------------------------------------------|
E|------------------------------------------------------------------------|


e|--12-----10-----8-----7-------------------------------------------------|
B|-----8------8-----8-----8---8-10-8--------------------------------------|
G|-------9------9-----9-----9--------9------------------------------------|
D|------------------------------------------------------------------------|
A|------------------------------------------------------------------------|
E|------------------------------------------------------------------------|
comments
We did not receive enough feedback on this tab! Please rate:
print report bad tab
1 2 3 4 5
1 comment total.
0 reply
jo3myster wrote on October 4 2008, 04:04 pm

intros an octave to high and theres some other stuff wrong but good try, you got more figured out than i did

I want to post or [tab]
guest
You may want to rate the tab now too:
select rating
Please do not post tabs as comments. Select "correction" instead!