Oops, an error
Loading. Please wait.

Ghostship Part 1 Tab

version 4
version 4

Whole song

Interactive

2,478 views 1 this week
3 commentsread comments
1 2 3 4 5
accurate
x 3
add to favorites
launch autoscroll
font size
0
reset
how to read this tab
guitar tuner
Tab Pro tools
  • play this tab
  • loop segment
  • change instrument
  • show fretboard
  • metronome
×
Best way to learn
"Ghostship Part 1"
Autoscroll
slow
fast
+/-
esc
set tempo
stop
Contributor
-------------------------------------------------------------------------------
                              Part 1 - The Fall Of Troy
-------------------------------------------------------------------------------
Tabbed by:ibanez-uchiha
Email:

Tuning:standard

This is what i've worked out so far
sorry it's not the whole thing but i think it's a pretty good intro

for the effects use a delay with about 250 ms and 60 repeats and tap the G string
with the edge of your pick towards the neck.

Notes in paranthesis can be picked lightly or slid from.

Intro and some effects played in the beginning.

e|---------------I------------I-12-I-----------------------------|
B|---------------I------------I----I--------171717171717171171717|
G|----5---5---5--I-(////////)-I----I-----------------------------|
D|---7---7---7-6-I------------I----I-----------------------------|
A|--0---0---0----I------------I----I-----------------------------|
E|---------------I------------I----I-----------------------------|


e|-------------------------------------------------------------------------------|
B|-------------------------------------------------------------------------------|
G|-12----------------------------------------------------------------------------|
D|-----12/14---12-14/15-14-12-(12)/14--------------------------------------------|
A|------------------------------------------12---12-(12)/14-12-(10)/12-----------|
E|----------------------------------------------------------------------12-------|

-----------------------------------|
-----------------------------------|
-----------------------------------|
-----------------------------------|
-----------------------------------|
(12)/13-12-10/12-5---5-5/7-5-3/5---|

e|-------------------------------------------------------------------|
B|----------------------------------------/17-15-18-20-22------------|
G|---9--9--9--7--7--7-10-10-10-9--9--9-------------------------------|
D|-7--7--7--7--7--7--7--7--7--7--7--7--------------------------------|
A|-------------------------------------------------------------------|
E|-------------------------------------------------------------------|

                                          ^above notes are tremolo picked^

e|-----12~----8---8---8---8--7-------------20-22-24------------------|
B|-----12~----x---x---x---x--x-------20-22---------------------------|
G|-5~--12~----5---5---5---5--4---X4----------------------------------|
D|-7~---------7---7---7---7--6---------------------------------------|
A|-0~---------0---0---0---0--0---------------------------------------|
E|-------------------------------------------------------------------|
        [Delay OFF]                 [At the end tremolo...] and then thom stamps on his
and makes wooshy noises :P


Main Riff-Chorus
e|---------------------------------------------------------------------|
B|---------------------------------------------------------------------|
G|--5-5-5--14-14-14-14--5-5-5--17-17-17-17--5-5-5-14-14-14-------------|
D|--7-7-7---x--x--x--x--7-7-7---x--x--x--x--7-7-7--x--x--x--XXXXXXXX---|
A|--0-0-0--12-12-12-12--6-6-6--15-15-15-15--0-0-0-12-12-12--XXXXXXXX---|
E|----------------------------------------------------------XXXXXXXX---|


e|----------------------------------------------15-12-15------------------|
B|-------------------------------------------------------13-10-9-10-12-13-|
G|--5-5-5--14-14-14-14--5-5-5--17-17-17--5-5-5----------------------------|
D|--7-7-7---x--x--x--x--7-7-7---x--x--x--7-7-7----------------------------|
A|--0-0-0--12-12-12-12--6-6-6--15-15-15--0-0-0----------------------------|
E|------------------------------------------------------------------------|

[Play chorus Twice]

e|--------------------------------------------------------------------------------|
B|------------10-----8------------------------------------------------------------|
G|-------------------------9------8----------------10------9----------------------|
D|----10-9-10---10-10-10-10-10-10--10-10----10-9-10---10-10---12-10-12/14-12-10---|
A|--12------------------------------------11--------------------------------------|
E|--------------------------------------------------------------------------------|


[Repeat Twice]
and then


Main Riff-Chorus
e|---------------------------------------------------------------------|
B|---------------------------------------------------------------------|
G|--5-5-5--14-14-14-14--5-5-5--17-17-17-17--5-5-5-14-14-14-------------|
D|--7-7-7---x--x--x--x--7-7-7---x--x--x--x--7-7-7--x--x--x--XXXXXXXX---|
A|--0-0-0--12-12-12-12--6-6-6--15-15-15-15--0-0-0-12-12-12--XXXXXXXX---|
E|----------------------------------------------------------XXXXXXXX---|


e|----------------------------------------------15-12-15--------------------|
B|-------------------------------------------------------13-10-9-10-12-13---|
G|--5-5-5--14-14-14-14--5-5-5--17-17-17--5-5-5------------------------------|
D|--7-7-7---x--x--x--x--7-7-7---x--x--x--7-7-7------------------------------|
A|--0-0-0--12-12-12-12--6-6-6--15-15-15--0-0-0------------------------------|
E|--------------------------------------------------------------------------|

Sorry i didn't finish it i'll try and sort it out sometime soon,in the meantime
enjoy what i submitted.
comments
We did not receive enough feedback on this tab! Please rate:
print report bad tab
1 2 3 4 5
3 comments total.
-2 reply
kylepianoman wrote on December 18 2008, 08:27 pm

homie you got the name wrong
please rename to
Chapter One: Introverting Dimensions

I'm gonna guess the name was just a mistake since you're used to ghostship.

+1 reply
Dottori wrote on November 2 2010, 09:31 pm

he did not title it wrong, hes working with the GOOD version of the song, the old demo, that was trippy as hell

0 reply
ibanez_uchiha wrote on November 17 2010, 08:52 pm

^ THANK.YOU. X100

I want to post or [tab]
guest
You may want to rate the tab now too:
select rating
Please do not post tabs as comments. Select "correction" instead!