Oops, an error
Loading. Please wait.

Ghostship Part 2 Guitar Pro

version 1
version 1

Whole song

Interactive

5,364 views 1 this week
4 commentsread comments
1 2 3 4 5
x 7
add to favorites
guitar tuner
Autoscroll
slow
fast
+/-
esc
set tempo
stop
File Format
Filesize
Instruments
.gp5
85 Kb
rhythm_guitars, lead_guitars, basses, percussions, vocals, keyboards
"Ghostship Part 2"
demo version
Play now

or get full version for Free

×
Get full version now!
Learn and play this song
in Tab Pro
Try for free

or get $10 off Welcome Bonus

Get welcome bonus
Get access to Tab Pro version of “Ghostship Part 2”!
Tab Pro is a premium guitar tab service, available on PC, Mac, iOS and Android
TRY FOR FREE
Your download will start in 7 seconds
×
Like this song? We have more! Follow us on Facebook for daily tips, lessons and other guitar-related content.
To download “Ghostship Part 2” Guitar Pro tab click button below
Please note that you must have Guitar Pro software installed on your
computer in order to view this file.
Suggest correction
comments
report bad tab
4 comments total. Showing first comments.
0 reply
Koolcow 154 Mar 10, 2007 06:40 AM

i applaud you for this my friend :)
great work.

0 reply
tfotguitarist 10 Mar 10, 2007 12:17 PM

can someone tab this out on powertab? Part 2 is my favorite song and my guitar pro evaluation period is over.

0 reply
rexel22 30 Oct 14, 2009 06:00 PM

hey great tab! a couple small things i noticed in the intro:

instead of
-----------------
--3h5------------
-----------------
-----------------
-----------------
-----------------

--------------------------
--3/5---------------------
------4h0-----------------
----------3---------------
--------------------------
--------------------------

and the end of that riff
------------------------
--5h6p5p0---------------
----------5h7-----------
------------------------
------------------------
------------------------

other then that, solid tab. keep up the good work.

guest