Oops, an error
Loading. Please wait.

Ghostship Part 4 Tab

version 2
version 2

Whole song

Interactive

9,716 views 6 this week
7 commentsread comments
1 2 3 4 5
x 15
add to favorites
launch autoscroll
font size
0
reset
how to read this tab
guitar tuner
Autoscroll
slow
fast
+/-
esc
set tempo
stop
Help us to improve Ultimate-Guitar.com Take our survey!
×
Author
Difficulty
intermediate
The Fall of Troy - Ghostship Part IV

extremely wicked song, hard to play, harder to sing and scream, but sounds good on
electric, and is even good played acoustic if you do it right.
         -Shane

Intro:
e|----------3h5p3p0--------------------0----------3h5p3p0-------------------3-----|e
B|---3h5p3p0-------3h5p3p0---------0-3---3-3h5p3p0-------3h5p3p0---------3/5-5~---|B
G|------------------------2h4p2p0-------------------------------2h4p2p0-----------|G
D|--------------------------------2-2-2-2-------------------------------2---------|D
A|--------------------------------------------------------------------------------|A
E|--------------------------------------------------------------------------------|E

e|---------------------------------------------------------------------------------|e
B|--0~------------------------------------------------------------1p0--------------|B
G|-------4p0---4~p0-4~p0----7p0---7~p0-7~p0----2p0---2~p0-2~p0--------0---4~/7-0---|G
D|---------------------------------------------------------------------4/5---------|D
A|-----3-----3------------7-----7------------2-----2------------0------------------|A
E|---------------------------------------------------------------------------------|E

e|----------3h5p3p0--------------------0----------3h5p3p0-------------------3-----|e
B|---3h5p3p0-------3h5p3p0---------0-3---3-3h5p3p0-------3h5p3p0---------3/5-5~---|B
G|------------------------2h4p2p0-------------------------------2h4p2p0-----------|G
D|--------------------------------2-2-2-2-------------------------------2---------|D
A|--------------------------------------------------------------------------------|A
E|--------------------------------------------------------------------------------|E

e|---------------------------------------------------------------------------------|e
B|--0~------------------------------------------------------------1p0--------------|B
G|-------4p0---4~p0-4~p0----7p0---7~p0-7~p0----2p0---2~p0-2~p0--------0---4~/7-0---|G
D|---------------------------------------------------------------------4/5---------|D
A|-----3-----3------------7-----7------------2-----2------------0------------------|A
E|---------------------------------------------------------------------------------|E


Verse 1:
e|-----------------------------------------------7h8p7p0---|e
B|--------------------12-12-12-----------------------------|B
G|---77777------------12-12-12--77777----------------------|G
D|---xxxxx-7-7--77777-10-10-10--xxxxx-7-7--77777-----------|D
A|---77777-x-x--xxxxx-12-12-12--77777-x-x--55555-----------|A
E|---------7-7--88888-----------------7-7--77777-----------|E

e|-----------------------------------------------7h8p7p0---|e
B|-------------------1212121212----------------------------|B
G|---77777-----------1212121212-7777-----------------------|G
D|---xxxxx-7-7--777771010101010-xxxx--7-7--77777-----------|D
A|---77777-x-x--xxxxx1212121212-7777--x-x--55555-----------|A
E|---------7-7--88888-----------------7-7--77777-----------|E

e|-----------------------------------------------7h8p7p0---|e
B|---------------------x-12-12-----------------------------|B
G|---77777-------------x-12-12-77777-----------------------|Gx2
D|---xxxxx-x-7-7-77777-x-10-10-xxxxx-x-7-7-77777-----------|D
A|---77777-x-x-x-xxxxx-x-12-12-77777-x-x-x-55555-----------|A
E|---------x-7-7-88888---------------x-7-7-77777-----------|E

Verse 2:
e|-------------------10-10----10-12p10-----------------7p0----------10---|e
B|---12--12--12--12----0--0120--0------12--7--7--7--7-----8~p0-----------|B
G|---12--12--12--12------------------------7--7--7--7----------7~~p0-----|G
D|---10--10--10--10------------------------5--5--5--5--------------------|D
A|---12--12--12--12------------------------7--7--7--7--------------------|A
E|-----------------------------------------------------------------------|E

e|-------------------10-10----10-12p10-----------------7p0-----7p0-------|e
B|---12--12--12--12----0--0120--0------12--7--7--7--7-----8p0-----8p0----|B
G|---12--12--12--12------------------------7--7--7--7--------7-------7---|G
D|---10--10--10--10------------------------5--5--5--5--------------------|D
A|---12--12--12--12------------------------7--7--7--7--------------------|A
E|-----------------------------------------------------------------------|E

e|-------------------10-10----10-12p10-----------------7p0----------10---|e
B|---12--12--12--12----0--0120--0------12--7--7--7--7-----8~p0-----------|B
G|---12--12--12--12------------------------7--7--7--7----------7~~p0-----|Gx2
D|---10--10--10--10------------------------5--5--5--5--------------------|D
A|---12--12--12--12------------------------7--7--7--7--------------------|A
E|-----------------------------------------------------------------------|E


Verse 1:
e|-----------------------------------------------7h8p7p0---|e
B|---------------------x-12-12-----------------------------|B
G|---77777-------------x-12-12-77777-----------------------|Gx2
D|---xxxxx-x-7-7-77777-x-10-10-xxxxx-x-7-7-77777-----------|D
A|---77777-x-x-x-xxxxx-x-12-12-77777-x-x-x-55555-----------|A
E|---------x-7-7-88888---------------x-7-7-77777-----------|E

e|-----------------------------------------------7h8p7p0---|e
B|-------------------12-12-12-12---------------------------|B
G|---77777-----------12-12-12-12-77777---------------------|Gx2
D|---xxxxx-7-7-77777-10-10-10-10-xxxxx-7-7-77777-----------|D
A|---77777-x-x-xxxxx-12-12-12-12-77777-x-x-55555-----------|A
E|---------7-7-88888-------------------7-7-77777-----------|E


Verse 2:
e|-------------------10-10----10-12p10-----------------7p0----------10---|e
B|---12--12--12--12----0--0120--0------12--7--7--7--7-----8~p0-----------|B
G|---12--12--12--12------------------------7--7--7--7----------7~~p0-----|G
D|---10--10--10--10------------------------5--5--5--5--------------------|D
A|---12--12--12--12------------------------7--7--7--7--------------------|A
E|-----------------------------------------------------------------------|E

e|-------------------10-10----10-12p10-----------------7p0-----7p0-------|e
B|---12--12--12--12----0--0120--0------12--7--7--7--7-----8p0-----8p0----|B
G|---12--12--12--12------------------------7--7--7--7--------7-------7---|G
D|---10--10--10--10------------------------5--5--5--5--------------------|D
A|---12--12--12--12------------------------7--7--7--7--------------------|A
E|-----------------------------------------------------------------------|E

e|-------------------10-10----10-12p10-----------------7p0----------10---|e
B|---12--12--12--12----0--0120--0------12--7--7--7--7-----8~p0-----------|B
G|---12--12--12--12------------------------7--7--7--7----------7~~p0-----|Gx2
D|---10--10--10--10------------------------5--5--5--5--------------------|D
A|---12--12--12--12------------------------7--7--7--7--------------------|A
E|-----------------------------------------------------------------------|E

Bridge:
e|-----------15-----14------------15-----14------------15-----14-----------------------------|e
B|---15p12-----12-----12--15p12-----12-----12--15p12-----12-----12--15p12---15p12-------15---|B
G|--------12-----12------------12-----12------------12-----12------------12------12---12-----|G
D|-------------------------------------------------------------------------------------------|D
A|-------------------------------------------------------------------------------------------|A
E|-------------------------------------------------------------------------------------------|E

e|------------------17p0-----------------15p0-----------------12p0-121212121212-121212121212---|e
B|---15/12p0-12/150-------15/12p0-12/150-------15/12p0-12/150------15b~~~~~~~~~-15b~~~~~~~~~---|B
G|---------------------------------------------------------------------------------------------|Gx4
D|---------------------------------------------------------------------------------------------|D
A|---------------------------------------------------------------------------------------------|A
E|---------------------------------------------------------------------------------------------|E

Chorus:
e|--------------------------------------------|e
B|-------------------------------------8p0----|B
G|----------------------------------9p0---7---|G
D|---7/9-9-------------------------7----------|D
A|---5/7-7-7~-10~/6~-9~/5~-8/4~-7~------------|A
E|---------5~--8~/4~-7~/3~-6/2~-5~------------|E

e|----------------------------------3p2h3p2h3p2---|e
B|------------------------------------------------|B
G|------------------------------------------------|G
D|---7/9-9----------------------------------------|D
A|---5/7-7-7~-10~/6~-9~/5~-8/4~-7~----------------|A
E|---------5~--8~/4~-7~/3~-6/2~-5~----------------|E

e|--------------------------------------3------|e
B|-----------------------------------3h5-5p0---|B
G|---------------------------------------------|G
D|---7/9-9-------------------------------------|D
A|---5/7-7-7~-10~/6~-9~/5~-8/4~-7~--0----------|A
E|---------5~--8~/4~-7~/3~-6/2~-5~-------------|E

e|--------------------------------------3------|e
B|------------------------------------5--5p0---|B
G|---------------------------------------------|G
D|---7/9-9-------------------------------------|D
A|---5/7-7-7~-10~/6~-9~/5~-8/4~-7~--0----------|A
E|---------5~--8~/4~-7~/3~-6/2~-5~-------------|E

Melody:
e|--------3---3-------------0---0---------0--8--8----------------|e
B|----1p0--1p0-1p0----0-3p0--3p0-3p0----------------88x1212------|B
G|-------------------------0-------------0-0--0--0--55x-9-9x99---|G
D|-------2------------------------------7---7--7--7-77x1111x77---|D
A|---0-------------2-3---------------3/8--------------------88---|A
E|---------------------------------------------------------------|E

e|---1212-10-8~--7~~--3--3/5p0--0--8--8-----------1212---|e
B|----------------------------------------88x1212x1010---|B
G|-------------------------------0--0--0--55x-9-9x1111---|G
D|----------------------------7---7--7--7-77x1111--------|D
A|---------------------------8---------------------------|A
E|-------------------------------------------------------|E

e|---15-12-8~--7-8-15-12b-----0--8--8--------------12p0---|e
B|--------------------------------------88x1212-----------|B
G|-----------------------------0--0--0--55x-9-9x99--------|G
D|--------------------------7---7--7--7-77x1111x77--------|D
A|-------------------------8--------------------88--------|A
E|--------------------------------------------------------|E

e|------------1212-----12p0-------------12p0-----1212---|e
B|---x88x1212x1010------x88x1212---------88x1212x1010---|B
G|---x55x-9-9x1111------x55x-9-9x99------55x-9-9x1111---|G
D|---x77x1111-----------x77x1111x77------77x1111--------|D
A|-------------------------------88---------------------|A
E|------------------------------------------------------|E

Chords:
e|---0~~---------------------|e
B|---1~~---------------------|B
G|---2~~---3~~---2~~---------|G
D|---2~~---2~~---2~~---0~~---|D
A|---0~~---0~~---0~~---2~~---|A
E|---------2~~---1~~---0~~---|E

Bridge:
e|---15p14p12-12-0-7765-0-2223-0-5553-0-7765-------------|e
B|------------12-0-8887-0-4445-0-7775-0-8887-----13/15---|B
G|---------------------------------------------12--------|G
D|-------------------------------------------10----------|D
A|-------------------------------------------------------|A
E|-------------------------------------------------------|E

e|---15p14p12-12-0-7765-0-2223-0-5553-0-7765--------------|e
B|------------12-0-8887-0-4445-0-7775-0-8887-------1012---|B
G|-----------------------------------------------12-------|G
D|-------------------------------------------1013---------|D
A|--------------------------------------------------------|A
E|--------------------------------------------------------|E

e|---15p14p12-12-0-7765-0-2223-0-5553-0-7765--------|e
B|------------12-0-8887-0-4445-0-7775-0-8887--------|B
G|---------------------------------------------12---|G
D|-------------------------------------------10-----|D
A|--------------------------------------------------|A
E|--------------------------------------------------|E

e|---15p14p12-12-0-7765-0-2223-0-5553-0-7765-----------------|e
B|------------12-0-8887-0-4445-0-7775-0-8887-------101213x---|B
G|-----------------------------------------------12----------|G
D|-------------------------------------------1013------------|D
A|-----------------------------------------------------------|A
E|-----------------------------------------------------------|E

Bridge 2:
e|---0h7p0-----10p012p0----------------14p0---12p0---10p0----------------|e
B|---------7h8----------12/15-15/17--15-----13-----12-----10/13p0-12p0---|B
G|-----------------------------------------------------------------------|G
D|-----------------------------------------------------------------------|D
A|-----------------------------------------------------------------------|A
E|-----------------------------------------------------------------------|E

e|---0h7p0-----10p012p0-------------------------------------------------|e
B|---------7h8----------10h12-8--10h12p10p0-8h10p8p0-7h8p7p0---1-1310---|B
G|-------------------------------------------------------------2-2222---|G
D|----------------------------------------------------------------------|D
A|----------------------------------------------------------------------|A
E|----------------------------------------------------------------------|E

e|---0h7p0-----10p012p0----------------14p0---12p0---10p0----------------|e
B|---------7h8----------12/15-15/17--15-----13-----12-----10/13p0-12p0---|B
G|-----------------------------------------------------------------------|G
D|-----------------------------------------------------------------------|D
A|-----------------------------------------------------------------------|A
E|-----------------------------------------------------------------------|E

e|---0h7p0-----10p012p0-------------------------------------------------|e
B|---------7h8----------10h12-8--10h12p10p0-8h10p8p0-7h8p7p0---1-1310---|B
G|-------------------------------------------------------------2-2222---|G
D|----------------------------------------------------------------------|D
A|----------------------------------------------------------------------|A
E|----------------------------------------------------------------------|E

e|---0h7p0-----10p012p0----------------14p0---12p0---10p0----------------|e
B|---------7h8----------12/15-15/17--15-----13-----12-----10/13p0-12p0---|B
G|-----------------------------------------------------------------------|G
D|-----------------------------------------------------------------------|D
A|-----------------------------------------------------------------------|A
E|-----------------------------------------------------------------------|E

e|---0h7p0-----10p012p0-----------------------------------------------3-3333---|e
B|---------7h8----------10h12-8--10h12p10p0-8h10p8p0-7h8p7p0---1-1310-1-1310---|B
G|-------------------------------------------------------------2-2222-2-2222---|G
D|-----------------------------------------------------------------------------|D
A|-----------------------------------------------------------------------------|A
E|-----------------------------------------------------------------------------|E

Chorus:
e|-------------------------------------------|e
B|------------------------------------8p0----|B
G|---------------------------------9p0---7---|G
D|---7/9-9------------------------7----------|D
A|---5/7-7-7~-10~/6~-9~/5~-8~4-7~------------|A
E|---------5~--8~/4~-7~/3~-6~2-5~------------|E

e|---------------------------------3p2h3p2h3p2---|e
B|-----------------------------------------------|B
G|-----------------------------------------------|G
D|---7/9-9---------------------------------------|D
A|---5/7-7-7~-10~/6~-9~/5~-8~4-7~----------------|A
E|---------5~--8~/4~-7~/3~-6~2-5~----------------|E

e|------------------------------------3------|e
B|---------------------------------3h5-5p0---|B
G|-------------------------------------------|G
D|---7/9-9-----------------------------------|D
A|---5/7-7-7~-10~/6~-9~/5~-8~4-7~-0----------|A
E|---------5~--8~/4~-7~/3~-6~2-5~------------|E

e|-----------------------------------------|e
B|-----------------------------------------|B
G|-----------------------------------------|G
D|-7/9-9-----------------------------------|D
A|-5/7-7-7~-10~/6~-9~/5~-8~/4~-7~/3~-6~/2~-|A
E|-------5~--8~/4~-7~/3~-6~/2~-5~/1~-4~/0~-|E


Lyrics:

(YEAH!)

I hear that dark masked voice that I thought I only dreamt about.
It tells all of my fears to everyone else, and conveys it's wants to me, PLEASE GET IT OUT

God's not a goldmine, God's on the inside,
selling everybody on the frontlines out.
Did you think your were rightside in, maybe inside out?
Reaching for, the gun, to load and pursuade you, to stay...
BANG! BANG! BANG! BANG!
The thoughts in your head taking hold,
and all the knots are tied too tight to hold!
Are you sold?
Do we have to make a deal? Let me know!?
Are you sold?
Bang! Bang! Bang!

Did, you forget, I'm your friend? I'm your counterpart in all of this!
Isn't there something you're forgetting?
You owe me your life for thinking that I would take this from you!

(YEAH!)

God's not a goldmine, God's on the inside,
selling everybody on the frontlines out.
Did you think your were rightside in, maybe inside out?
Reaching for, the gun, to load and pursuade you, to stay...
BANG! BANG! BANG! BANG!
the thoughts in your head taking hold,
and all the knots are tied too tight to hold!
Are you sold?
Do we have to make a deal? Let me know!?
Are you sold?
Bang! Bang! Bang!

MURDER!
MURDER!
MURDER!
MURDER!

Explanations turn to expectations turn to explorations.
This is torture, thinking I would hold her, but I think it's over.

MURDER!
MURDER!
MURDER!
MURDER!
Suggest correction
comments
print report bad tab
7 comments total. Showing first comments.
0 reply
Trevor6 20 Sep 06, 2006 12:21 AM

do they use hybrid picking for this?



great tab btw

+1 reply
ductape1349 41 Sep 08, 2006 06:38 PM

heres the easy way to play the second verse.
|-----------------------10h12p0----------------------------------15-|
|-12-12-12-12--12---------------12p0-------------12------10---------|
|-12-12-12-12-----12p11--------------11-11-11-11----12p0----12p0----|
|-10-10-10-10------------------------12-12-12-12--------------------|
|-12-12-12-12------------------------10-10-10-10--------------------|
|------------------------------------0--0--0--0---------------------|

+1 reply
the_series 10 Feb 05, 2007 02:47 PM

On the “God’s not a goldmine” part shouldn’t it be:
e|-------------------------10p12p0---------------------7----5----15p0-----|
B|---12--12--12--12--12-----------12p0-----7--7--7--7---8p0--8p0----------|
G|---12--12--12--12----12p11---------------7--7--7--7---------------------|
D|---10--10--10--10------------------------5--5--5--5---------------------|
A|---12--12--12--12------------------------7--7--7--7---------------------|
E|------------------------------------------------------------------------|

Just wondering...
It’s still a great tab by the way.

guest
You may want to rate the tab now too:
select rating
Wanna post a correction for this tab? Suggest correction