Oops, an error
Loading. Please wait.

Ghostship Part 4 Tab

version 4
version 4

Whole song

Interactive

1,323 views 1 this week
1 commentread comment
1 2 3 4 5
please rate
add to favorites
launch autoscroll
font size
0
reset
how to read this tab
guitar tuner
Autoscroll
slow
fast
+/-
esc
set tempo
stop
Help us to improve Ultimate-Guitar.com Take our survey!
×
the other tabs didnt sound right to me. this is how i play it::

[
   / = repeat note (if several are in a row, strum fast)
   x = cut off
                                                           ]

intro: x2
e|--------3h5p3p0--------------------0-----|
B|-3h5p3p0-------3h5p3p0---------0-3---3-0-|
G|----------------------2h4p2p0------------|
D|-----------------------------2-----------|
A|-----------------------------------------|
E|-----------------------------------------|

e|--------3h5p3p0--------------------0-3-0-|
B|-3h5p3p0-------3h5p3p0---------0-3-------|
G|----------------------2h4p2p0------------|
D|-----------------------------2-----------|
A|-----------------------------------------|
E|-----------------------------------------|

e|-----------------------------------------|
B|-------0-------0---3-0-------------------|
G|---0-----0-----------------0---2-0-------|
D|-------------2---2-----2-----------------|
A|-3---3-----3-------------2---2-----2-----|
E|-----------------------------------------|

e|------------------|
B|--------------3---|
G|---5p4----0-4-----|
D|--------4---------|
A|-0----------------|
E|------------------|

riff 1: x2
e|-------------------------------|
B|-------------------------------|
G|-(7)////-----------------------|
D|-(5)////-7-7-(9)////-(17)////--|
A|-(7)////-5-5-(7)////-----------|
E|---------7-7-(8)////-----------|

e|-------------------------------------|
B|-------------------------------------|
G|-(7)////-----------------------------|
D|-(5)////-7-7-(5)////-16-17-16-14-----|
A|-(7)////-5-5-(3)////-------------17--|
E|---------7-7-(5)////-----------------|

verse: x2
e|-------------------------------------|
B|-------------------------------------|
G|-(7)-/-/-----------------------------|
D|-(5)-/-/-(7)-/-/-(9)-/-/-(17)////----|
A|-(7)-/-/-(5)-/-/-(7)-/-/-------------|
E|---------(7)-/-/-(8)-/-/-------------|

e|-------------------------------------|
B|-------------------------------------|
G|-(7)-/-/-----------------------------|
D|-(5)-/-/-(7)-/-/-(5)-/-/-16-17-16-14-|
A|-(7)-/-/-(5)-/-/-(3)-/-/-------------|
E|---------(7)-/-/-(5)-/-/-------------|

chorus: x4

e|-------------7p0----10s12---7--------|
B|-(12)-/-/-/-----8p0-------0----------|
G|-(12)-/-/-/--------------------------|
D|-(10)-/-/-/--------------------------|
A|-(12)-/-/-/--------------------------|
E|-------------------------------------|

e|------------7p0----------------------|
B|-(7)-/-/-/-----8p0-10p8p0-8h10p0-----|
D|-(5)-/-/-/---------------------------|
A|-(7)-/-/-/---------------------------|
E|-------------------------------------|

play verse again x2

play riff 1 again x2

play chorus again x4

i cant figure out the quieter middle part,
but i figured this part out:

x4
e|-7p0---7h10p0-17--7p0---7h10p0-14--7p0---7h10p0-12--10s(12)////s10--|
B|----8p0--------------8p0--------------8p0---------------------------|
G|--------------------------------------------------------------------|
D|--------------------------------------------------------------------|
A|--------------------------------------------------------------------|
E|--------------------------------------------------------------------|

MURDER!! riff:           |  really fast  |
e|----------------------------------0h3p0--|
B|-----------------------------0h3p0-------|
G|------------------------0h3p0------------|
D|-s14--7-10-6-9-5-8-4-7-------------------|
A|-s14--7-10-6-9-5-8-4-7-------------------|
E|-s12--5-8--4-7-3-6-2-5-------------------|

e|------------------------(6)////////s-----|
B|-----------------------------------------|
G|-----------------------------------------|
D|-s14--7-10-6-9-5-8-4-7-------------------|
A|-s14--7-10-6-9-5-8-4-7-------------------|
E|-s12--5-8--4-7-3-6-2-5-------------------|

e|----------------------------------0h3p0--|
B|-----------------------------0h3p0-------|
G|------------------------0h3p0------------|
D|-s14--7-10-6-9-5-8-4-7-------------------|
A|-s14--7-10-6-9-5-8-4-7-------------------|
E|-s12--5-8--4-7-3-6-2-5-------------------|

e|-----------------------------------------|
B|-----------------------------------------|
G|-----------------------------------------|
D|-s14--7-10-6-9-5-8-4-7--7----------------|
A|-s14--7-10-6-9-5-8-4-7--7----------------|
E|-s12--5-8--4-7-3-6-2-5--5----------------|

[soft distortion] intro:                 |strum |
e|--------3---------------0--3-----------(0)///-/----------------------|
B|---1p0-----1p0------0h3---0--0----1----(1)///-/----------------------|
G|------------------0-----------------2--(2)///-/--12-12-x16-16-x9-9-x-|
D|------2---2--------------------------2-(2)///-/--10-10-x14-14-x7-7-x-|
A|-0--------------3----------------------(0)///-/--12-12-x15-15-x8-8-x-|
E|--------------------------------1------(1)///-/----------------------|

chords: x2

e|-(0)//--(3)//--(0)//----------------------------|
B|-(1)//--(0)//--(1)//----------------------------|
G|-(0)//--(0)//--(2)//--12-12-x16-16-x9-9-x-------|
D|-(2)//--(0)//--(2)//--10-10-x14-14-x7-7-x-------|
A|-(0)//--(3)//--(0)//--12-12-x15-15-x8-8-x-------|
E|---------------(1)//----------------------------|


thats most of the song right there.
Suggest correction
What's this?
You can suggest a correction to this tab. Community and Mods will review your correction and vote to approve or reject it.
comments
We did not receive enough feedback on this tab! Please rate:
print report bad tab
1 2 3 4 5
1 comment total.
0 reply
jo3myster 680 wrote on June 2 2008, 04:21 pm

you did pretty good on some parts but on lots of parts you made it more difficult than it actually is 4/5 stars

guest
You may want to rate the tab now too:
select rating
Please do not post tabs as comments. Select "correction" instead!