Oops, an error
Loading. Please wait.

Ghostship Part 5 Bass Tab

version 1
version 1

Whole song

Interactive

2,398 views 6 this week
2 commentsread comments
1 2 3 4 5
please rate
add to favorites
launch autoscroll
font size
0
reset
guitar tuner
Tab Pro tools
  • play this tab
  • loop segment
  • change instrument
  • show fretboard
  • metronome
×
Best way to learn
"Ghostship Part 5"
Autoscroll
slow
fast
+/-
esc
set tempo
stop
Contributor
Difficulty
intermediate
this is the basic structure of the song. i play around with the verse a little bit and 
techno breakdown cuz those parts are fun as hell to play...


The Fall of Troy
www.myspace.com/thefalloftroy
Ghostship part V

chorus
0:07
G|----------------------|
D|----------------------|
A|-7-7-7-7------7-7-7-7-|
E|----------------------|

G|---------------------------o|
D|---------------------------o|
A|-33333-/666-33333---5-3-2--o|
E|---------------------------o|X3


Inerlude
0:28
G|------------------------------------|
D|---------------10---10-55555-4-4-4--|
A|------------------------------------|
E|--------8---8-----------------------| 1 time

verse

G|----------4-2-4---------9-7-9--|
D|-----4--------------9----------|
A|---2---2----------7---7--------|
E|-------------------------------|

G|------------------------------------|
D|---------------10---10-55555-4-4-4--|
A|------------------------------------|
E|--------8---8-----------------------|  3 times

chorus
0:58
G|----------------------|
D|----------------------|
A|-7-7-7-7------7-7-7-7-|
E|----------------------|

G|---------------------------o|
D|---------------------------o|
A|-33333-/666-33333---5-3-2--o|
E|---------------------------o| 2 times

verse 4 times

chorus 4 times

crazy techno part
1:49
G|--------9-------------9---------|
D|--------------------------------|
A|--7-7-7---7/5---7-7-7---7-/5----|
E|--------------------------------|

G|--------9-------------9-------|
D|------------------------------|
A|--7-7-7---7/5---7-7-7---3-2---|
E|----------------------------3-|

G|------------------------------|
D|------------------------------|
A|--------3-------------3-------|
E|--5-5-5---5-3---5-5-5---5-3---|

G|------------------------------o|
D|------------------------------o|
A|--------5-------------55------o|
E|--7-7-7---7-5---7-7-7---------o| 4 times


^^^basic way of playing it, it changes a little during the song each time, easy to figure out by ear

2:39
G|-------------------------------|
D|-------------------------------|
A|--7/0--------------------------|
E|-------------------------------|


G|------------------------------------|
D|------------------------------------|
A|--77--/4--77--/4---77--/4---77--/4--|
E|------------------------------------|


G|-------------------5-5-5-----4-4-4--o--|
D|-----------5-5-5--------------------o--|
A|--3-3-3-----------------------------o--|
E|---------------------------------------|o

3:15
G|-------------------------------------------------|
D|-----5-----4-----2---2222-4444-------------------|
A|-------------------------------------------------|
E|--33---22----00----------------------------------| 6 times end with this

G|--------------------------------------------------|
D|-----5-----4-----2---22---22----22---22-----------|
A|--------------------------------------------------|
E|--33---22----00---------0----0-----0--- 0---------| on the 6th time


climbing up part
3:49
G|----------------------------------------------------------|
D|----------------------------------------------------------|
A|----------------------------------------------------------| X4
E|----3-3-3-333--/5-5-5-555--/7-7-7-777--/8-8-875-----------|

G|----------------------------------------------------------|
D|----------------------------------------------------------|
A|----------------------------------------------------------|
E|----3-3-3-333--/5-5-5-555--/7-8-7-8-7-7-975---------------| <<
comments
We did not receive enough feedback on this tab! Please rate:
print report bad tab
1 2 3 4 5
2 comments total.
0 reply
Nick-182 wrote on January 1 2008, 10:54 am

wheres the last bit

0 reply
GhostAnimals93 wrote on August 9 2008, 12:23 am

That was perfect man,i gave it a five out of five.

You seperated it to much here

Inerlude
0:28
G|------------------------------------|
D|---------------10---10-55555-4-4-4--|
A|------------------------------------|
E|--------8---8-----------------------|

There you go:]

G|------------------------------------|
D|-----------------10-10-55555-4-4-4--|
A|------------------------------------|
E|------------8-8---------------------|

I want to post or [tab]
guest
You may want to rate the tab now too:
select rating
Please do not post tabs as comments. Select "correction" instead!