Oops, an error
Loading. Please wait.

Holy Tape Bass Tab

version 1
version 1

Whole song

Interactive

1,292 views 1 this week
3 commentsread comments
1 2 3 4 5
worth learning
x 1
add to favorites
launch autoscroll
font size
0
reset
guitar tuner
Tab Pro tools
  • play this tab
  • loop segment
  • change instrument
  • show fretboard
  • metronome
Autoscroll
slow
fast
+/-
esc
set tempo
stop
Contributor
Difficulty
intermediate
the fall of troy
doppelganger
holy tape.

intro
G---------------|
D---------------| (4 times)
A-333-2---------|
E---------------|

G-------------------------|
D--------55-33-22---------| ( 2 times )
A-00----------------------|
E-------------------------|

G------------|
D------------|
A------------|
E-111111-----|


G-------------------------|
D--------55-33-22---------| ( 2 times )
A-00----------------------|
E-------------------------|

G------------|
D------------|
A------------|
E-111111-----|


G--------------------------------------------------------------------------------|
D--------------------------------------------------------------------------------|
A---------2-33---------------3-55----------------2-33----------------------------|
E-3-5--------------3-5--------------------3-5-------------------------111111-----|

BREAK DOWN THING
G--------------------------------------------------------|
D--------------------------------------------------------|
A--------------------------------------------------------|
E-6666666666666-------------------11111111111------------|

G------------9--------------------8------------------------11-------------------5-|
D-77-10---------------66-9------------------99----12-------------33----6----------|
A---------------------------------------------------------------------------------|
E---------------------------------------------------------------------------------|

G---------------------------------------------------------|
D-77-777--------------------------------------------------|
A-------------------333-55-3-222222-555-3-2-0-------------|
E---------------------------------------------------------|
comments
We did not receive enough feedback on this tab! Please rate:
print report bad tab
1 2 3 4 5
3 comments total.
0 reply
thatonebassist wrote on August 6 2008, 10:15 pm

pretty good, missed a few notes, but ok overall

0 reply
Girugameshhh wrote on June 22 2009, 02:06 am

Its not called the Holy tape.. Its the Holloway tape >.> A common misconception among listeners, read The House Of Leaves.

0 reply
InsomniaJunkie wrote on March 29 2011, 08:03 pm

Listen to the Intro/verse man you left out a lot of notes.

I want to post or [tab]
guest
You may want to rate the tab now too:
select rating
Please do not post tabs as comments. Select "correction" instead!