Oops, an error
Loading. Please wait.

I Just Got This Symphony Goin Bass Tab

version 1
version 1

Whole song

Interactive

1,311 views 1 this week
no commentswrite comment
1 2 3 4 5
please rate
add to favorites
launch autoscroll
font size
0
reset
guitar tuner
Autoscroll
slow
fast
+/-
esc
set tempo
stop
Help us to improve Ultimate-Guitar.com Take our survey!
×
Author
Difficulty
intermediate
Artist- Fall of Troy
Song- I Just Got This Symphony Goin'
Album- Doppleganger

I reccommend using a pick on this song. It gives you a quicker feel to it. I doubt 
i made any mistakes on here. This was done all by ear. Hope it helps. Email me if 
you need help or have any questions to ask.
Email- evanstilleymusic@aim.com

h- Hammer on

Tuning:Standard [E A D G]

|---------------------------------------------|
|---------------------------------------------| 
|---------------------7--7-7--7-10--10-10--10-| x2
|-8--8-8--8-8--8-8--8-------------------------|

    x4                                       x4
|---------|---------------------------|---------|--------------------------|
|---------|---------------------------|---------|--------------------------|
|---------|---------------10-10-10-10-|---------|---------------10-10-10-10|
|-8-10-12-|-12-12-12-12---------------|-8-10-12-|-12--12-12--12------------|


     x2
|-------4h5-|------------------------|-------------------------------|x2 all
|-----------|------------------------|-------------------------------|but
|-----------|-------5h7--------------|-----------------55-555-77-777-|first 
|-5-5-5-----|-5-5-5-----8-10-8-7-8-7-|-1-1-111-1-1-111---------------|part


|----------------------------|--------------------------|
|----------------------------|--------------------------|x2
|--------66-666-55-555-8-8-8-|--------66-666-55-555-----|
|-55-555---------------------|-55-555---------------1-1-|

     x2
|-------4h5-|------------------------|-------------------------------|x2 all
|-----------|------------------------|-------------------------------|but
|-----------|-------5h7--------------|-----------------55-555-77-777-|first 
|-5-5-5-----|-5-5-5-----8-10-8-7-8-7-|-1-1-111-1-1-111---------------|part



|----------------------------|--------------------------|
|----------------------------|--------------------------|x2
|--------66-666-55-555-8-8-8-|--------66-666-55-555-----|
|-55-555---------------------|-55-555---------------1-1-|
 
                                                       x3
|-----------------------------------|--------------------------------------|
|-------55-55-----------------------|-----------55-55----------------------|
|---5h7-------7-88-88--5-77-77--5h7-|-------5h7-------7-88-88--5-77-77--5h7|
|-5---------------------------------|-55-55--------------------------------|

           
|---------------------------------|------------------------|
|---------------------------------|------------------------|x3
|--------88-888-55-555------------|--------88-888-55-555---|
|-55-555---------------55-5-7h8p7-|-55-555---------------5-|

                                                 x3
|-----------------------------------|--------------------------------------|
|-------55-55-----------------------|-----------55-55----------------------|
|---5h7-------7-88-88--5-77-77--5h7-|-------5h7-------7-88-88--5-77-77--5h7|
|-5---------------------------------|-55-55--------------------------------|

        
|-------------------|
|-------------------|x3
|-------------------|
|-45-45-45-45-45-45-|

         
|----------------------|
|----------------------|x4
|----------------------|
|5-5-5-5-5-5-5-000-333-|

                 
|------------------------------------------|
|------------------------------------------|x4
|-0-0-0-0-0-0-0-0--------------3-3-3-3-3-3-|
|--4-4-4-4-4-4-4-4-0-0-0-0-0-0-------------|
   
                              
|--------------------|-------------------------|
|--------------------|-------------------------|x4
|--------------------|-------3-3-3-------------|
|-55------55------55-|-5-5-5-------5-5-5-3-0-3-|


|----------------------------|--------------------------|
|----------------------------|--------------------------|x2
|--------66-666-55-555-8-8-8-|--------66-666-55-555-----|
|-55-555---------------------|-55-555---------------1-1-|


|---------------|-------------------------------------------------------|
|---------------|-------------------------------------------------------|
|---------------|-0-0-0-0-0-0-------------------------------------------|
|-5---5---5---5-|--2-2-2-2-2-2-000-333--1-0-1-0-1-0-1-0-1-0-1-0-555-777-|

|-----------------------------------------------------|
|-----------------------------------------------------|
|-0-0-0-0-0-0-----------------------------------5-7-0-|
|--2-2-2-2-2-2-000-333--1-0-1-0-1-0-1-0-1-0-1-0-------|
Suggest correction
Give kudos to tab author, rate the tab!
1 2 3 4 5
comments
print report bad tab
guest
You may want to rate the tab now too:
select rating
Wanna post a correction for this tab? Suggest correction