Oops, an error
Loading. Please wait.

I Just Got This Symphony Goin Tab

version 1
version 1

Whole song

Interactive

10,960 views 3 this week
2 commentsread comments
1 2 3 4 5
x 5
add to favorites
launch autoscroll
font size
0
reset
how to read this tab
guitar tuner
Autoscroll
slow
fast
+/-
esc
set tempo
stop
Help us to improve Ultimate-Guitar.com Take our survey!
×
Author
Difficulty
intermediate
I just got this symphony going (incomplete)
   T       T      T
E--12p0-----------12p0-|
B-------h3h12p0h3------|
G----------------------|
D----------------------| x4
A----------------------|
E----------------------|

   T    T      T
E--14p0--------14p0----|
B-------15p0h7------h7-|
G----------------------|
D----------------------| x2
A----------------------|
E----------------------|

   T    T      T
E--17p0--------17p0----|
B-------17p0h8------h8-|
G----------------------|
D----------------------| x2
A----------------------|
E----------------------|

   T       T      T
E--12p0-----------12p0-|
B-------h3h12p0h3------|
G----------------------|
D----------------------| x4
A----------------------|
E----------------------|

   T    T      T
E--14p0--------14p0----|
B-------15p0h7------h7-|
G----------------------|
D----------------------| x2
A----------------------|
E----------------------|

   T    T      T
E--17p0--------17p0----|
B-------17p0h8------h8-|
G----------------------|
D----------------------| x2
A----------------------|
E----------------------|

   T      T      T      T      T    T
E--12p0h5--------12p0h5--------12p0-12p0-|
B---------12p0h5--------12p0h5-----------|
G----------------------------------------|
D----------------------------------------| x2
A----------------------------------------|
E----------------------------------------|

   T      T           T
E--10p0h7--------|----10p0-|
B---------10p0h7-|---------|
G----------------|---------|
D----------------|
            
                            
Suggest correction
comments
print report bad tab
2 comments total.
0 reply
jo3myster 247 Dec 09, 2007 06:36 PM

hey this is a good tab but to see a better one go to
http://tabwiki.com/index.php/The_Fall_of_Troy/I_Just_Got_This_Symphony_Goin%27

0 reply
W.h.o.r.EGuitar 50 Apr 29, 2008 08:31 AM

theres no tab at that link

guest
You may want to rate the tab now too:
select rating
Wanna post a correction for this tab? Suggest correction