Oops, an error
Loading. Please wait.

Laces Out Dan Tab

version 2
version 2

Whole song

Interactive

2,666 views 1 this week
1 commentread comment
1 2 3 4 5
2 more votes to show rating
add to favorites
launch autoscroll
font size
0
reset
how to read this tab
guitar tuner
Autoscroll
slow
fast
+/-
esc
set tempo
stop
Help us to improve Ultimate-Guitar.com Take our survey!
×
Laces Out Dan


e|-----------------------------|
B|-----------------------11...-|
G|-9xx12xx-14xx-15xx-9xx--9...-|
D|-8xx11xx-13xx-14xx-8xx--8...-| do some dead notes at the begining
A|-7xx10xx-12xx-13xx-7xx--7...-|
E|-----------------------------|

e|------------------------------------------------|-------------(19bend)----------------------------------|
B|------------------------------------------------|--------------12---------------------------------------|
G|---------------------------------7-7-7-10-10-10-|--------------15---------------7-7-7-10-10-10-13-13-13-|
D|-8-5-8989-8-5-xxxx-8989-8-5-8989-6-6-6--9--9--9-|-8-5-8989-8-5----8989-8-5-8989-6-6-6--9--9--9-12-12-12-|
A|-7-4-7878-7-4-xxxx-7878-7-4-7878-5-5-5--8--8--8-|-7-4-7878-7-4----7878-7-4-7878-5-5-5--8--8--8-11-11-11-|
E|-6-3-6767-6-3-xxxx-6767-6-3-6767----------------|-6-3-6767-6-3----6767-6-3-6767-------------------------|  

                                    1,2._______________3._____________
e|-----------------------------------------------------|--------------|
B|-----------------------------------------------------|--------------|
G|------4p04p0------4p04/7------4p04p0------4p2p0------|-3p03p05p05p0-|
D|-8-88--------8-88--------4-44--------4-44------4p2p0-|--------------|
A|-----------------------------------------------------|--------------|
E|-7-77--------7-77--------3-33--------3-33------------|--------------|

e|-----------------------------------------|-----------15p0-14p0-17p0-15p0-19p0-17p0-|
B|-12p0-12p0-15p0-15p0-12p0-12p0-15p0-17p0-|-12p0-12p0-------------------------------|
G|-----------------------------------------|-----------------------------------------|
D|-----------------------------------------|-----------------------------------------|
A|-----------------------------------------|-----------------------------------------|
E|-----------------------------------------|-----------------------------------------|

e|-----------------------------------------|----------------------------------|
B|-12p0-12p0-15p0-15p0-12p0-12p0-15p0-17p0-|-12po-12po-15p0-15p0--------------|
B|-----------------------------------------|----------------------------------|
D|-----------------------------------------|---------------------4-4-4--4-4-4-|
A|-----------------------------------------|----------------------------------|
E|-----------------------------------------|---------------------3-3-3--3-3-3-|

e|-------------(19bend)----------------------------------|------------------------------------------------|
B|--------------12---------------------------------------|------------------------------------------------|
G|--------------15---------------7-7-7-10-10-10-13-13-13-|---------------------------------7-7-7-10-10-10-|
D|-8-5-8989-8-5----8989-8-5-8989-6-6-6--9--9--9-12-12-12-|-8-5-8989-8-5-xxxx-8989-8-5-8989-6-6-6--9--9--9-|
A|-7-4-7878-7-4----7878-7-4-7878-5-5-5--8--8--8-11-11-11-|-7-4-7878-7-4-xxxx-7878-7-4-7878-5-5-5--8--8--8-|
E|-6-3-6767-6-3----6767-6-3-6767-------------------------|-6-3-6767-6-3-xxxx-6767-6-3-6767----------------|

e|-----------------------------------------------------|--------------|
B|-----------------------------------------------------|--------------|
G|------4p04p0------4p04/7------4p04p0------4p2p0------|-3p03p05p05p0-|
D|-8-88--------8-88--------4-44--------4-44------4p2p0-|--------------|
A|-----------------------------------------------------|--------------|
E|-7-77--------7-77--------3-33--------3-33------------|--------------|

e|-----------------------------------------|-----------15p0-14p0-17p0-15p0-19p0-17p0-|
B|-12p0-12p0-15p0-15p0-12p0-12p0-15p0-17p0-|-12p0-12p0-------------------------------|
G|-----------------------------------------|-----------------------------------------|
D|-----------------------------------------|-----------------------------------------|
A|-----------------------------------------|-----------------------------------------|
E|-----------------------------------------|-----------------------------------------|

e|-----------------------------------------|----------------------------------|
B|-12p0-12p0-15p0-15p0-12p0-12p0-15p0-17p0-|-12po-12po-15p0-15p0--------------|
B|-----------------------------------------|----------------------------------|
D|-----------------------------------------|---------------------7-7-7--7-7-7-|
A|-----------------------------------------|----------------------------------|
E|-----------------------------------------|---------------------6-6-6--6-6-6-|
               1,2,3,4._______5._____________________
e|----------------------------|----------------------|
B|----------------------12-12-|-------------12-12-12-|
G|----------------------15-15-|-------------15-15-15-|
D|-8..........-58658-586------|-586-586-586----------|
A|-7..........-47547-475------|-475-475-475----------|
E|-6..........-36436-364------|-364-364-364----------|

e|--------------------------|--------------------------------------|
B|--------------------------|--------------------------------------|
G|------3p03p0--------------|------3p03p0--------------------------|
D|-8888--------15--11--14-7-|-8888--------15--11--14-8/15-15-15-15-|
A|--------------------------|--------------------------------------|
E|-7777--------14--10--13-6-|-7777--------14--10--13-7/14-14-14-14-|

e|--------------------------|--------------------------------------------------------------------------|
B|--------------------------|--------------------------------------------------------------------------|
G|------3p03p0--------------|------3p03p0--------------------------10h12/11h13/12h14/13h15/14h15/15h17-|
D|-8888--------15--11--14-7-|-8888--------15--11--14-8/15-15-15-15-------------------------------------|
A|--------------------------|--------------------------------------------------------------------------|
E|-7777--------14--10--13-6-|-7777--------14--10--13-7/14-14-14-14-------------------------------------|

e|-------------------------------------------|-------------------------------------------------------------|
B|-------------------------------------------|-------------------------------------------------------------|
G|-------------------------10h12/11h13/12h14-|-------------------------10h12/11h13/12h14/13h15/14h15/15h17-|
D|-8/15-15-8/15-15-8/15-15-------------------|-8/15-15-8/15-15-8/15-15-------------------------------------|
A|-------------------------------------------|-------------------------------------------------------------|
E|-7/14-14-7/14-14-7/14-14-------------------|-7/14-14-7/14-14-7/14-14-------------------------------------|

e|-------------------------------------------|---------------------------------------------------|
B|-------------------------------------------|---------------------------------------------------|
G|-------------------------10h12/11h13/12h14-|---------------------------------------------------|
D|-8/15-15-8/15-15-8/15-15-------------------|-8/15-15-8/15-15-8/15-15-7-7-7--7-7-7-8-5-8989-8-5-|
A|-------------------------------------------|--------------------------------------7-4-7878-7-4-|
E|-7/14-14-7/14-14-7/14-14-------------------|-7/14-14-7/14-14-7/14-14-6-6-6--6-6-6-6-3-6767-6-3-|
Suggest correction
Give kudos to tab author, rate the tab!
1 2 3 4 5
comments
print report bad tab
1 comment total.
0 reply
jo3myster 247 Jul 07, 2008 09:56 AM

certain parts are good others not so much mostly good though 4 Stars

guest
You may want to rate the tab now too:
select rating
Wanna post a correction for this tab? Suggest correction