Oops, an error
Loading. Please wait.

Laces Out Dan Tab

version 4
version 4

Whole song

Interactive

2,006 views 1 this week
2 commentsread comments
1 2 3 4 5
please rate
add to favorites
launch autoscroll
font size
0
reset
how to read this tab
guitar tuner
Autoscroll
slow
fast
+/-
esc
set tempo
stop
Help us to improve Ultimate-Guitar.com Take our survey!
×
Laces Out Dan by The Fall Of Troy Guitar Tab
Doppelganger
by: Cubfan1091
This is a fun song, and I noticed none of the tabs were entirely correct, so I made my 
It's not 100% correct, but its really close. Enjoy

*= pinch harmonic
.= palm mute
p= pull off
h= hammer on
x= dead note
/= slide


Intro
e|-----------------------------------------------------------------|
B|----------------------------------------------------8-----10-----|
G|----------------------------------------------9------------------|
D|----------------------------------------8------------------------|
A|-----------------------------------7-----------------------------|
E|-0-0-0-0-0-0-0-0-0-0-0-0-0-0-0-0-0---0-0--0-0---0-0---0-0----0-0-|
PM.................................   ...  ...   ...   ...    ...

e|------------------------------------------------------------|
B|------------------------------------------------------------|
G|-9-9-9-9-9-9-9-9-9-9-9-9-9-9-9-9-21-21-21-21-21-21-21-21-/p0|
D|-8-8-8-8-8-8-8-8-8-8-8-8-8-8-8-8-20-20-20-20-20-20-20-20-/p0|
A|-7-7-7-7-7-7-7-7-7-7-7-7-7-7-7-7-19-19-19-19-19-19-19-19-/p0|
E|------------------------------------------------------------|

Verse|
e|-----------------------------------------------------------------------|
B|-----------------------------------------------------------------------|
G|-------3-4---------------------3-4-3-4-------3-4---7-7-7-7-10-10-10-10-|
D|-5--2--3-4-2-5--2--------------3-4-3-4-5--2--3-4-2-6-6-6-6-9--9--9--9--|
A|-5--2--1-2-2-5--2--------------1-2-1-2-5--2--1-2-2-5-5-5-5-8--8--8--8--|
E|-3--0------0-3--0--0-0-0-0--0----------3--0------0---------------------|
PM                   . . . .  .

E|----------------------------------------------------------------------|
B|----------------------------------------------------------------------|
G|-------3-4---------3*-3-4-3-4-------3-4---7-7-7-7-10-10-10-10-9-9-9-9-|
D|-5--2--3-4-2-5--2-----3-4-3-4-5--2--3-4-2-6-6-6-6-9--9--9--9--8-8-8-8-|
A|-5--2--1-2-2-5--2-----1-2-1-2-5--2--1-2-2-5-5-5-5-8--8--8--8--7-7-7-7-|
E|-3--0------0-3--0-------------3--0------0-----------------------------|

Chorus
e|----------------------------------------------------------------|
B|----------------------------------------------------------------|
G|-4-4-4-4P0-4P0-4-4-4-7P0-0H9P0--------4P0-------3P0-4p0---------|
D|-4-4-4---------4-4-4------------5-5-5-----5-5-5---------4p2p0---|
A|-2-2-2---------2-2-2------------5-5-5-----5-5-5-----------------|
E|--------------------------------3-3-3-----3-3-3-----------------|

e|----------------------------------------------------------------|
B|----------------------------------------------------------------|
G|-4-4-4-4P0-4P0-4-4-4-7P0-0H9P0--------4P0-------3P0-4p0---------|
D|-4-4-4---------4-4-4------------5-5-5-----5-5-5---------4p2p0---|
A|-2-2-2---------2-2-2------------5-5-5-----5-5-5-----------------|
E|--------------------------------3-3-3-----3-3-3-----------------|

e|----------------------------------------------------------------|
B|----------------------------------------------------------------|
G|-4-4-4-4P0-0H4P0-4-4-4-7P0-0H9P0--------4P0-4P0-3P0-3P0-5P0-5P0-|
D|-4-4-4-----------4-4-2------------5-5-5-------------------------|
A|-2-2-2-----------2-2-2------------5-5-5-------------------------|
E|----------------------------------3-3-3-------------------------|

e|--------------------------------------------------------------------------|
B|12p0-12p0-15p0-15p0-12p0-12p0-15p0-17p0-12p0-12p0-20p0-19p0-22p0-20p0-22p0|
G|--------------------------------------------------------------------------|
D|--------------------------------------------------------------------------|
A|--------------------------------------------------------------------------|
E|--------------------------------------------------------------------------|

e|--------------------------------------------------------------------------|
B|24p0-12p0-12p0-15p0-15p0-12p0-12p0-15p0-17p0-12p0-12p0-15p0-15p0----------|
G|--------------------------------------------------------------------------|
D|--------------------------------------------------------------------------|
A|--------------------------------------------------------------------------|
E|--------------------------------------------------------------------------|
*Note* If you do not have a 24th fret, you can just hit 22p0 again instead or 19p0 on 
high e string. This is also has some effect going on in the background. It might be delay. 
don;t know. If you tremolo pick this it sounds kinda cool.

e|-------------|
B|-------------|
G|-------------|
D|-5-5-5-5-5-5-|
A|-5-5-5-5-5-5-|
E|-3-3-3-3-3-3-|

Verse
e|-----------------------------------------------------------------------|
B|-----------------------------------------------------------------------|
G|-------3-4---------------------3-4-3-4-------3-4---7-7-7-7-10-10-10-10-|
D|-5--2--3-4-2-5--2--------------3-4-3-4-5--2--3-4-2-6-6-6-6-9--9--9--9--|
A|-5--2--1-2-2-5--2--------------1-2-1-2-5--2--1-2-2-5-5-5-5-8--8--8--8--|
E|-3--0------0-3--0--0-0-0-0--0----------3--0------0---------------------|
PM                   . . . .  .

e|----------------------------------------------------------------------|
B|----------------------------------------------------------------------|
G|-------3-4---------3*-3-4-3-4-------3-4---7-7-7-7-10-10-10-10-9-9-9-9-|
D|-5--2--3-4-2-5--2-----3-4-3-4-5--2--3-4-2-6-6-6-6-9--9--9--9--8-8-8-8-|
A|-5--2--1-2-2-5--2-----1-2-1-2-5--2--1-2-2-5-5-5-5-8--8--8--8--7-7-7-7-|
E|-3--0------0-3--0-------------3--0------0-----------------------------|

Chorus
e|----------------------------------------------------------------|
B|----------------------------------------------------------------|
G|-4-4-4-4P0-4P0-4-4-4-7P0-0H9P0--------4P0-------3P0-4p0---------|
D|-4-4-4---------4-4-4------------5-5-5-----5-5-5---------4p2p0---|
A|-2-2-2---------2-2-2------------5-5-5-----5-5-5-----------------|
E|--------------------------------3-3-3-----3-3-3-----------------|

e|----------------------------------------------------------------|
B|----------------------------------------------------------------|
G|-4-4-4-4P0-0H4P0-4-4-4-7P0-0H9P0--------4P0-4P0-3P0-3P0-5P0-5P0-|
D|-4-4-4-----------4-4-2------------5-5-5-------------------------|
A|-2-2-2-----------2-2-2------------5-5-5-------------------------|
E|----------------------------------3-3-3-------------------------|

e|--------------------------------------------------------------------------|
B|12p0-12p0-15p0-15p0-12p0-12p0-15p0-17p0-12p0-12p0-20p0-19p0-22p0-20p0-22p0|
G|--------------------------------------------------------------------------|
D|--------------------------------------------------------------------------|
A|--------------------------------------------------------------------------|
E|--------------------------------------------------------------------------|

e|--------------------------------------------------------------------------|
B|24p0-12p0-12p0-15p0-15p0-12p0-12p0-15p0-17p0-12p0-12p0-15p0-15p0----------|
G|--------------------------------------------------------------------------|
D|--------------------------------------------------------------------------|
A|--------------------------------------------------------------------------|
E|--------------------------------------------------------------------------|

Breakdown
e|-----------------------------------------------------------------6-6---|
B|-----------------------------------------------------------------5-5---|
G|-----------------------------------------------------------------------|
D|-5-5-5-5-5-5--------------8-------------8---5-8-5-2-5-8-5-2-5-2--------|
A|-5-5-5-5-5-5--------------7-------------7---4-7-4-1-4-7-4-1-4-1--------|
E|-3-3-3-3-3-3--0-0-0-0-0-0-6-0-0-0-0-0-0-6---3-6-3-0-3-6-3-0-3-0--------|
             pm|. . . . . .| |. . . . . .|
e|------------------------------------------------------6-6--------------|
B|------------------------------------------------------5-5--------------|
G|-----------------------------------------------------------------------|
D|-------------8-------------8---5-8-5-2-5-8-5-2-5-2---------------------|
A|-------------7-------------7---4-7-4-1-4-7-4-1-4-1---------------------|
E|-0-0-0-0-0-0-6-0-0-0-0-0-0-6---3-6-3-0-3-6-3-0-3-0---------------------|
  |. . . . . .| |. . . . . .|

e|------------------------------------------------------6-6--------------|
B|------------------------------------------------------5-5--------------|
G|-----------------------------------------------------------------------|
D|-------------8-------------8---5-8-5-2-5-8-5-2-5-2---------------------|
A|-------------7-------------7---4-7-4-1-4-7-4-1-4-1---------------------|
E|-0-0-0-0-0-0-6-0-0-0-0-0-0-6---3-6-3-0-3-6-3-0-3-0---------------------|
  |. . . . . .| |. . . . . .|

e|------------------------------------------------------6-6-6------------|
B|------------------------------------------------------5-5-5------------|
G|-----------------------------------------------------------------------|
D|-------------8-------------8---5-8-5-2-5-8-5-2-5-2---------------------|
A|-------------7-------------7---4-7-4-1-4-7-4-1-4-1---------------------|
E|-0-0-0-0-0-0-6-0-0-0-0-0-0-6---3-6-3-0-3-6-3-0-3-0---------------------|
  |. . . . . .| |. . . . . .|

e|------------------------------------------------|
B|--------------------7-7-7-----------------------|
G|-6-6-6-6p0h3p0h3p0--x-x-x--6-6-6--7-7-7--5--7-1-|
D|-X-X-X-X------------4-4-4--x-x-x--x-x-x--x--x-x-|
A|-4-4-4-4-------------------4-4-4--5-5-5--3--5-3-|
E|------------------------------------------------|

r|-----------------------------------------------------|
B|--------------------7-7-7----------------------------|
G|-6-6-6-6p0h3p0h3p0--x-x-x--6-6-6--7-7-7--------------|
D|-X-X-X-X------------4-4-4--x-x-x--x-x-x--9-/14-14-14-|
A|-4-4-4-4-------------------4-4-4--5-5-5--8-/13-13-13-|
E|-----------------------------------------7-/12-12-12-|

e|------------------------------------------------|
B|--------------------7-7-7-----------------------|
G|-6-6-6-6p0h3p0h3p0--x-x-x--6-6-6--7-7-7--5--7-1-|
D|-X-X-X-X------------4-4-4--x-x-x--x-x-x--x--x-x-|
A|-4-4-4-4-------------------4-4-4--5-5-5--3--5-3-|
E|------------------------------------------------|

e|-----------------------------------------------------|
B|--------------------7-7-7----------------------------|
G|-6-6-6-6p0h3p0h3p0--x-x-x--6-6-6--7-7-7--------------|
D|-X-X-X-X------------4-4-4--x-x-x--x-x-x--9-/14-14-14-|
A|-4-4-4-4-------------------4-4-4--5-5-5--8-/13-13-13-|
E|-----------------------------------------7-/12-12-12-|

e|----------------------------------------------------------------|
B|-7-8-9-10-8-9-10-11-9-10-11-12-10-11-12-13-11-12-13-14----------|
G|----------------------------------------------------------------|
D|----------------------------------------------------------------|
A|----------------------------------------------------------------|
E|----------------------------------------------------------------|

e|-----------------------------------------|
B|-----------------------------------------|
G|-----------------------------------------|
D|-9-/14-14-14--9-/14-14-14--9-/14-14-14---|
A|-8-/13-13-13--8-/13-13-13--8-/13-13-13---|
E|-7-/12-12-12--7-/12-12-12--7-/12-12-12---|

e|-------------------------------|
B|-7-8-9-10-8-9-10-11-9-10-11-12-|
G|-------------------------------|
D|-------------------------------|
A|-------------------------------|
E|-------------------------------|

e|-----------------------------------------|
B|-----------------------------------------|
G|-----------------------------------------|
D|-9-/14-14-14--9-/14-14-14--9-/14-14-14---|
A|-8-/13-13-13--8-/13-13-13--8-/13-13-13---|
E|-7-/12-12-12--7-/12-12-12--7-/12-12-12---|

e|----------------------------------------------------------------|
B|-7-8-9-10-8-9-10-11-9-10-11-12-10-11-12-13-11-12-13-14----------|
G|----------------------------------------------------------------|
D|----------------------------------------------------------------|
A|----------------------------------------------------------------|
E|----------------------------------------------------------------|

e|-----------------------------------------|
B|-----------------------------------------|
G|-----------------------------------------|
D|-9-/14-14-14--9-/14-14-14--9-/14-14-14---|
A|-8-/13-13-13--8-/13-13-13--8-/13-13-13---|
E|-7-/12-12-12--7-/12-12-12--7-/12-12-12---|

e|-------------------------------|
B|-7-8-9-10-8-9-10-11-9-10-11-12-|
G|-------------------------------|
D|-------------------------------|
A|-------------------------------|
E|-------------------------------|

e|-----------------------------------------|
B|-----------------------------------------|
G|-----------------------------------------|
D|-9-/14-14-14--9-/14-14-14--9-/14-14-14---|
A|-8-/13-13-13--8-/13-13-13--8-/13-13-13---|
E|-7-/12-12-12--7-/12-12-12--7-/12-12-12---|

Outro
e|---------------------------------|
B|---------------------------------|
G|-------------------3-4---------3*|
D|-5-5-5-5-5-5-5--2--3-4-2-5--2----|
A|-5-5-5-5-5-5-5--2--1-2-2-5--2----|
E|-3-3-3-3-3-3-3--0------0-3--0----|
Suggest correction new What's this?
You can suggest a correction to this tab. Community and Mods will review your correction and vote to approve or reject it.
comments
We did not receive enough feedback on this tab! Please rate:
print report bad tab
1 2 3 4 5
2 comments total.
0 reply
kylepianoman 1,505 wrote on January 9 2009, 10:22 pm

in the verse, the first chord is played

or else you don't get the high b-flat in if you don't play it...

0 reply
Kylol 90 wrote on June 8 2014, 06:53 pm

The dissonant chord in the breakdown is actually supposed to be:

e|------------------------------------------------------------------------|
B|-----------------------------------------------------------------12-12--|
G|-----------------------------------------------------------------15-15--|
D|-5-5-5-5-5-5--------------8-------------8---5-8-5-2-5-8-5-2-5-2---------|
A|-5-5-5-5-5-5--------------7-------------7---4-7-4-1-4-7-4-1-4-1---------|
E|-3-3-3-3-3-3--0-0-0-0-0-0-6-0-0-0-0-0-0-6---3-6-3-0-3-6-3-0-3-0---------|

I want to post or [tab]
guest
You may want to rate the tab now too:
select rating
Please do not post tabs as comments. Select "correction" instead!