Oops, an error
Loading. Please wait.

Last March Of The Ents Bass Tab

version 1
version 1

Whole song

Interactive

655 views 1 this week
7 commentsread comments
1 2 3 4 5
1 last vote to show rating
add to favorites
launch autoscroll
font size
0
reset
guitar tuner
Autoscroll
slow
fast
+/-
esc
set tempo
stop
Help us to improve Ultimate-Guitar.com Take our survey!
×
Author
Difficulty
intermediate
0:13
G|----12----9----------7---5--------12-----9-----7--|
D|--10----------------------------10----------------|
A|12----10-12-10-8-7-10-5-8-8-5-12----10-12--10-8---|
E|--------------------------------------------------|x6

0:52
G|----------------------------------------------------------|
D|----------------------------------------------------------|
A|-0000-0000002-33333333333-5555---------33333333333-5555---|
E|-----0-------------------------111-111--------------------|x2

1:19
G|----12----9----------7---5--------12-----9-----7--|
D|--10----------------------------10----------------|
A|12----10-12-10-8-7-10-5-8-8-5-12----10-12--10-8---|
E|--------------------------------------------------|x6

1:57
G|----------------------------------------------------------|
D|----------------------------------------------------------|
A|-0000-0000002-33333333333-5555---------33333333333-5555---|
E|-----0-------------------------111-111--------------------|x2

2:29
G|--------5--------------------------|
D|-0-000-3-3-0-000-0---------2-232---|
A|----------------3-3-0-000-3-3------|
E|-----------------------------------|x7

3:04
G|--------20--|
D|---0--19----|
A|-18-00------|
E|------------|x16

3:31
G|--------20---------20---------20-----------------|
D|---0--19------0--19------0--19-------------------|
A|-18-00------18-00------18-00------9999-9-121212--|
E|-------------------------------------------------|x4

3:59
G|----------------------------------------------------------|
D|----------------------------------------------------------|
A|-0000-0000002-33333333333-5555---------33333333333-5555---|
E|-----0-------------------------111-111--------------------|x2

4:25
G|----12----9----------7---5--------12-----9-----7--|
D|--10----------------------------10----------------|
A|12----10-12-10-8-7-10-5-8-8-5-12----10-12--10-8---|
E|--------------------------------------------------|x2

Thats all the song, it is very simple but you have to practice thats all.
Suggest correction
Give kudos to tab author, rate the tab!
1 2 3 4 5
comments
print report bad tab
7 comments total. Showing first comments.
0 reply
zudik 31 Nov 04, 2006 07:17 PM

la hice yo!

0 reply
It'sForTheBest 143 Dec 24, 2006 01:31 AM

What the hell? This is a bass tab for FCPREMIX. A poor one at that.

0 reply
zudik 31 Dec 24, 2006 05:22 PM

this aint fcprmix in that song the guitar plays what i put in here but in the last march of the ents is slower and the bass does it so youre wrong ´´its for the best``

guest
You may want to rate the tab now too:
select rating
Wanna post a correction for this tab? Suggest correction