Oops, an error
Loading. Please wait.

Macaulay Caulkin Tab

3,034 views 1 this week
3 commentsread comments
1 2 3 4 5
accurate
x 3
add to favorites
launch autoscroll
font size
0
reset
how to read this tab
guitar tuner
Autoscroll
slow
fast
+/-
esc
set tempo
stop
Help us to improve Ultimate-Guitar.com Take our survey!
×
Author
Tabbed by: Zorro
Email:okzorrobudday@sbcglobal.net
This is the original version from the Ghostship Demos. The Doppelganger version is 
but I dont think there are extra guitar parts, just a lot of funky noise.

Tuning: standard
Intro
e|--1---0h1---3---1h3-------------------------------------------------------|
B|-3--3-----0---0-----------0-1-1/3-1-0-------------------------------------|
G|----------------------2--------------2-2----------------------------------|
D|0--------2-----------2--2-------------------------------------------------|
A|-------------------0------------------------------------------------------|
E|--------------------------------------------------------------------------|

e|--1-0h1--3-1h3----5-8-7-8-7-----------------------------------------------|
B|-3-3----0-0------5--------------------------------------------------------|
G|--------------------------------------------------------------------------|
D|0------2------------------------------------------------------------------|
A|---------------0----------------------------------------------------------|
E|--------------------------------------------------------------------------|
Verse(The part after the intro and the part that starts w/ "Shut up, you're talking too loud..)
e|--------------------------------------------------------------------------|
B|--------------------------------------------------------------------------|
G|12-12-12-12-12-12-14-14-14-14-14-14-9-9-9-9-9-10-9-7--5/7-5/7-------------|
D|x--x--x--x--x--x--x--x--x--x--x--x--x-x-x-x-x-x--x-x--x---x---------------|
A|10-10-10-10-10-10-12-12-12-12-12-12-7-7-7-7-7-8--7-5-3/5-3/5--------------|
E|--------------------------------------------------------------------------|

e|--------------------------------------------------------------------------|
B|------------------------------------17-17-17-17-17-17-17-17-17-17-17-17---|
G|12-12-12-12-12-12-14-14-14-14-14-14-x--x--x--x--x--x--x--x--x--x--x--x----|
D|x--x--x--x--x--x--x--x--x--x--x--x--14-14-14-14-14-14-14-14-14-14-14-14---|
A|10-10-10-10-10-10-12-12-12-12-12-12---------------------------------------|
E|--------------------------------------------------------------------------|

e|--------------------------------------------------------------------------|
B|--------------------------------------------------------------------------|
G|12-12-12-12-12-12-14-14-14-14-14-14-9-9-9-9-9-10-9-7--5/7-5/7-------------|
D|x--x--x--x--x--x--x--x--x--x--x--x--x-x-x-x-x-x--x-x--x---x---------------|
A|10-10-10-10-10-10-12-12-12-12-12-12-7-7-7-7-7-8--7-5-3/5-3/5--------------|
E|--------------------------------------------------------------------------|


e|---------------------------------------------------17---------------------|
B|-------------------------------------------------17-----------------------|
G|12-12-12-12-12-12-14-14-14-14-14-14------14---14--------------------------|
D|x--x--x--x--x--x--x--x--x--x--x--x-----14---14----------------------------|
A|10-10-10-10-10-10-12-12-12-12-12-12--12-----------------------------------|
E|--------------------------------------------------------------------------|
Chorus( With a black heart undercover.....)
e|---------------------15-12---------------------------------------------------|
B|-------------------------15-12-12h13-12h13h12--------13-------13-------------|
G------------------------------------------14-12-14-14---14-12-14--14-12-14----|
D|-----------------------------------------------------------------------------|
A|7-x-5-x-7-7-x-5-x-7----------------------------------------------------------|
E|5-x-3-x-5-5-x-3-x-5----------------------------------------------------------|

After 2nd Chorus
e|-------------------------(fucking high feedback note)---------------------|
B|--------------------------------------------------------------------------|
G|--------------------------------------------------------------------------|
D|--------------5-8----1----4-11-14-----------------------------------------|
A|7-10-5-7-12-7-3-6-0-3--0-6--9--12----------------10-7---------------------|
E|5-8--3-5-10-5-------------------------------------8-5---------------------|

e|------------------------(ditto)-------------------------------------------|
B|--------------------------------------------------------------------------|
G|--------------------------------------------------------------------------|
D|--------------5-8-11-14---------------------------------------------------|
A|7-10-5-7-12-7-3-6-9--12--------10-7-----3-0--3-0--3-0-3-0--3-0------------|
E|5-8--3-5-10-5------------------8--5--------0-----0---0---0----0-----------|

"Mom and Dad can't help you anymore..."(x4)
e|--------------------------------------------------------------------------|
B|--------------------------------------------------------------------------|
G|9-x-7-x-9-x-7-x-9--5-5-5-5-5-5--------------------------------------------|
D|x-x-x-x-x-x-x-x-x--5-5-5-5-5-5-5-5-5-5-5-5--------------------------------|
A|7-x-5-x-7-x-5-x-7--3-3-3-3-3-3-5-5-5-5-5-5--------------------------------|
E|-------------------------------3-3-3-3-3-3--------------------------------|

e|-------------12p10---15p14-----------------------3p0----------------------|
B|------------------12-----------------3p0----------------------------------|
G|9-x-7-x-9-----------------5-x-5-x-5------4p2p0----------------------------|
D|x-x-x-x-x-----------------x-x-x-x-x------------2--------------------------|
A|7-x-5-x-7-----------------3-x-3-x-3---------------------------------------|
E|--------------------------------------------------------------------------|

e|--------------------------------------------15h17-15/12--------(2nd Time---|
B|----------5h8-------------------------15h17--------------------------------|
G|9-x-7-x-9-----7h9-4h5-5-5-5-5-5--16h17------------------4h5-4h5-4h5-4h5----|
D|x-x-x-x-x-------------x-x-x-x-x--------------------------------------------|
A|7-x-5-x-7-------------3-3-3-3-3--------------------------------------------|
E|---------------------------------------------------------------------------|

This is that whole middle part where he starts talking about murdering this girl or 
cause hes a nutcase. It's basically this over and over.
e|---------------------------------------------------------------------------|
B|---------------------------------------------------------------------------|
G|---------------------------------------------------------------------------|
D|8-8-8-8-10-10-10-10-7-7-7-7-4-4-4-4-5-5-5-5-7-7-7-7-4-4-4-4-5-5-5-5--------|
A|6-6-6-6-8--8--8--8--5-5-5-5-2-2-2-2-3-3-3-3-5-5-5-5-2-2-2-2-3-3-3-3--------|
E|---------------------------------------------------------------------------|

Crazy instrumental section:
e|--------------------------------------------------------------------------|
B|--------------------------------------------------------------------------|this chord 
all you need for most of it.
G|9-------------------------------------------------------------------------|
D|8-------------------------------------------------------------------------|
A|7-------------------------------------------------------------------------|
E|--------------------------------------------------------------------------|

...and then...(x2)
e|---------------------6-7-6-5-6-5-4-5-4-3-4-3-2-3-2------------------------|
B|--------------------------------------------------------------------------|
G|---------------8-8-8------------------------------------------------------|
D|7-7-7-10-10-10-7-7-7-----------------------------(2nd time)---------------|
A|6-6-6-9--9--9--6-6-6---------------------7-8-7-6-5-6-5-6-5-4-5-4-3-4-3----|
E|5-5-5-8--8--8----------------------------5-6-5-4-5-4-3-4-3-2-3-2-1-2-1----|


e|-------12-----------------------------------------------------------------|
B|-------12-----------------------------------------------------------------|
G|--------------------------------------------------------------------------|
D|2---2---------------------------------------------------------------------|
A|2---2-------0-1-----------------------------------------------------------|
E|0---0-----------0-0-------------------------------------------------------|

Ending ( " You're tearing me up, inside my mind...")
e|--------------------------------------------------------------------------|
B|--------------------------------------------------------------------------|
G|--------------------------------------------------------------------------|
D|-9-7-9-----------------------------9-7-9-----------12--11--12-11-12-14-12-|
A|7-7-7-7--10--9-10---5-4-5-4-5-4-5-7-7-7-7-10-9-10-10--10--10-10-10--------|
E|-------8---8--8----3-3-3-3-3-3-3----------8--8-8--------------------------|

Now shred like a muthafucka(x2)
e|-----15-------15------15--15----18--18--18---15--15--18--18---------------|
B|--12---12---12--12--12--12----15--15--15---12--12--15--15-----------------|
G|--------------------------------------------------------------------------|
D|2---------2-------2---------2------------2--------------------------------|
A|2---------2-------2---------2------------2--------------------------------|
E|0---------0-------0---------0------------0--------------------------------|


AND NOW YOU WONT FORGET MY FUCKING NAME!!!
Enjoy!
-Z
Suggest correction
What's this?
You can suggest a correction to this tab. Community and Mods will review your correction and vote to approve or reject it.
comments
We did not receive enough feedback on this tab! Please rate:
print report bad tab
1 2 3 4 5
3 comments total.
-1 reply
matddors 544 wrote on July 9 2006, 04:38 pm

Intro goes more like this...

|--------------|--------------|--------------|---------------|
|------6---5h6-|------8-----8-|------1---0-1-|-/3--1-0-------|
|--------------|----------9---|--------------|---------2-0---|
|----7---7-----|----9---9-----|----2---2-----|-------------2-|
|--5-----------|--7-----------|--0-----------|---------------|
|--------------|--------------|--------------|---------------|

|--------------|--------------|--------------------|---------|
|------6---5h6-|------8-----8-|--------13----12-13-|--12-----|
|--------------|----------9---|-----------14-------|---------|
|----7---7-----|----9---9-----|-----14-------------|---------|
|--5-----------|--7-----------|--12----------------|---------|
|--------------|--------------|--------------------|---------|


other than that you've done a great job.

-1 reply
reclise 14 wrote on July 31 2007, 01:53 am

lol very good man, but "really ****ing high feedback"..lol I think, don't quote me, but it is a pinch harmonic on 4 on top E lol I think, also I'm still trying to find those harmonics he plays above the post-breakdown whatever lol, cause they sound awesome, but kick ass man, continue the amazing
-Xander

+1 reply
Maximilliano2 80 wrote on September 10 2008, 01:08 pm

please tell me good sir


how might a "mutha****a" shred?

guest
You may want to rate the tab now too:
select rating
Please do not post tabs as comments. Select "correction" instead!