Oops, an error
Loading. Please wait.

Macaulay Mcculkin Bass Tab

version 1
version 1

Whole song

Interactive

2,911 views 1 this week
3 commentsread comments
1 2 3 4 5
accurate
x 4
add to favorites
launch autoscroll
font size
0
reset
guitar tuner
Tab Pro tools
  • play this tab
  • loop segment
  • change instrument
  • show fretboard
  • metronome
×
Best way to learn
"Macaulay Mcculkin"
Autoscroll
slow
fast
+/-
esc
set tempo
stop
Contributor
Difficulty
advanced
The Fall Of Troy are definetly one of the sickest bands around, Thomas is a god among mere mortals.

Standard tuning : E D A G , G D A E, whatever.

This tab is damn near perfect, so rate it what it deserves.

0:09-0:12
G|-----------------------------------|
D|-----------------------------------|
A|-55555555-77777777-000h1p0h1p0-000-|
E|-----------------------------------|

0:12-0:21
G|----------------------------------------------------------------------------------|
D|----------------------------------------------------------------------------------|
A|-55555555-77777777-12-12-12-10-12-10-12-10-12-10-5-0-5-0-7-0-7-0-7-0--------------|
E|---------------------------------------------------------------------505030505030-|

0:21-0:36
G|---------------------------------------------------------------------|
D|---------------------------------------------------------------------|
A|-55555555-7777777777----------------55555555-77777777-000h1poh10-000-|
E|----------------------5-3333-5-3333----------------------------------|

G|--------------------------------------------------------------|
D|--------------------------------------------------------------|
A|--------------55555555-77777777-12-12-12-10-12-10-12-10-12-10-|
E|-5-3333-5-3333------------------------------------------------|

0:36-0:48
G|------------------------------------------------|
D|------------------------------------------------|
A|---------------55555555-77777777-000h1poh10-000-|
E|-5-3333-5-3333----------------------------------|

|----------------------------------------------------------------|
|----------------------------------------------------------------|
|---------------55555555-77777777-000h1poh10-000-----------------|
|-5-3333-5-3333----------------------------------5-3333-5-3333---|

0:49-0:52 rest

0:52-1:06
G|--------------------------------------------|
D|--------------------------------------------|
A|-5-7-7777-000h1p0h1p0-000-55555555-77777777-|
E|--------------------------------------------|

G|----------------------------------------------------------------------------------|
D|----------------------------------------------------------------------------------|
A|-12-12-12-10-12-10-12-10-12-10-5-0-5-0-7-0-7-0-7-0--------------55555555-77777777-|
E|----------------------------------------------------505030505030------------------|

1:06-1:31
G|----------------------------------------------------------------------------------|
D|----------------------------------------------------------------------------------|
A|-55555555-77777777-000h1p0h1p0-000--------------55555555-77777777-000h1p0h1p0-000-|
E|----------------------------------5-3333-5-3333-----------------------------------|
3
G|---------------------------------------------------------------|
D|---------------------------------------------------------------|
A|---------------55555555-77777777-000h1p0h1p0-000---------------|
E|-5-3333-5-333------------------------------------5-3333-5-3333-|

G|-------------------------------------------------|
D|-------------------------------------------------|
A|-55555555-77777777-000h1p0h1p0-000---------------|
E|-----------------------------------5-3333-5-3333-|


1:30-1:55
G|------------------------------------------------------------------|
D|------------------------------------------------------------------|
A|---------5-----------6--------------------------------------------|
E|-5-8-3-5---3-5-3-5-8---8-5-3-5-3--8-5-3-5-3--8-5-3-5-3--8-5-3-5-3-|

G|---------------------------------------------------------------------------------------|
D|---------------------------------------------------------------------------------------|
A|---------5-----------6-----------------------------------------------------------------|
E|-5-8-3-5---3-5-3-5-8---8-5-3-5-3--8-5-3-5-3--8-5-3-5-3--8-5-3-5-3--530-530-530-530-530-|

1:55-2:02 rest

2:03-2:10
G|-------------------------|
D|-------------------------|
A|-77-55-5p0-5p0-77-55-5p0-|
E|-------------------------|

2:10-2:26
G|----------------------------------|
D|----------------------------------|
A|-7x5x7-55555555-33333333-00000000-|
E|----------------------------------|x4

2:26-2:32 rest

2:32-3:11
G|-------------------------------------------------------------------|
D|-------------------------------------------------------------------|
A|-6-6-6--6\8-8-8--8/5-5-5--5\/-2-2-2\3-3-3--3\5-5-5-4/2-2-2-2\3-3-3-|
E|-------------------------------------------------------------------|x5

3:11-3:28
G|-999999999-----|
D|---------------|
A|---------------|
E|----------rest-|x3

3:28-3:32

3:32-3:55
G|-999999999-999999999-999999999-999999999999999999-|
D|--------------------------------------------------|
A|--------------------------------------------------|
E|--------------------------------------------------|

3:55-4:21
G|---------------------------------------------|---|
D|---------------------------------------------|---|
A|-1\4\7--1\4\7--------------------------------|---|
E|--------------6-7-6-5-6-5-4-5-4-3-4-3-2-\-3-2|-1-|x5 
|slide but still pluck|                        |End on 1 the 5th time|

4:21-6:05

6:06-6:25
G|-------------|
D|-21p19-18-19-|
A|-------------|
E|-------------|x4

6:27-6:46
G|--------|
D|--------|
A|--------|
E|-000000-|x10 Timing was impossible to tab, listen to the song.

6:46-End, rest.
comments
print report bad tab
3 comments total.
+2 reply
exrdef wrote on July 8 2007, 04:57 pm

you missed a lot around the end. other than that, fine job!

0 reply
TheWallSpeaks wrote on September 16 2007, 12:09 am

almost perfect. Good job :)

0 reply
InsomniaJunkie wrote on February 9 2012, 07:04 pm

4:21-6:05???

I want to post or [tab]
guest
You may want to rate the tab now too:
select rating
Please do not post tabs as comments. Select "correction" instead!