Oops, an error
Loading. Please wait.

Macaulay Mcculkin Tab

version 1
version 1

Intro

Whole song

Interactive

2,013 views 1 this week
2 commentsread comments
1 2 3 4 5
2 more votes to show rating
add to favorites
launch autoscroll
font size
0
reset
how to read this tab
guitar tuner
Autoscroll
slow
fast
+/-
esc
set tempo
stop
Help us to improve Ultimate-Guitar.com Take our survey!
×
Difficulty
intermediate
Chords that are played.

e|-------------------------|
b|--6---------8---------1--|
g|--7---------9---------2--|
d|--7---------9---------2--|
a|--5---------7---------0--|
e|-------------------------|


The picking
e|-------------0--------------------0------------------------------------|
b|-------6--------6-----------8---------8--------1----0--1--1s3s1--0-----|
g|----------7--------------------9------------------2----------------2-0-|
d|----7-------------------9-------------------2--------------------------|
a|--5------------------7--------------------0----------------------------|
e|-----------------------------------------------------------------------|


e|-------------0--------------------0---------------------------------|
b|-------6--------6-----------8---------8----------13----12--10--12---|
g|----------7--------------------9--------------------14--------------|
d|----7-------------------9--------------------14---------------------|
a|--5------------------7---------------------0------------------------|
e|--------------------------------------------------------------------|
Suggest correction
Give kudos to tab author, rate the tab!
1 2 3 4 5
comments
print report bad tab
2 comments total.
0 reply
vladz0r 47 Jun 04, 2006 06:37 PM

finish it?


the beggining sounsd good though


and mark it as an intro?

+1 reply
maybenot999 10 Feb 05, 2008 07:49 PM

u suck

guest
You may want to rate the tab now too:
select rating
Wanna post a correction for this tab? Suggest correction