Oops, an error
Loading. Please wait.

Mouths Like Sidewinder Missiles Bass Tab

version 1
version 1

Whole song

7,004 views 1 this week
4 commentsread comments
1 2 3 4 5
x 4
add to favorites
launch autoscroll
font size
0
reset
guitar tuner
Autoscroll
slow
fast
+/-
esc
set tempo
stop
Help us to improve Ultimate-Guitar.com Take our survey!
×
Author
Band: The Fall Of Troy
Song: Mouths Like Sidewinder Missiles.
Album: Doppelganger
Tabbed by: -Joe-
Standard Tuning: EADG

Somethings You'd like to Know This is MY First tab.
Its Pretty Accurate Try it out and tell me what you think.
Please give me come constructive good criticism on this tab so my future ones will be better.
Also what i mean by "1st Ending".
You play that the 1st time and then repeat that section again and then play the 2nd ending.
Sorry If my Tabs a bit hard to read.

Intro [0:00-0:04]
G|------------------|
D|------------------|
A|------------------|
E|---5-0-5-0-5-0-5--|


	[0:05-0:19]
G|-----------------|---------------------|---------------------------------|
D|-----------------|---------------------|---------------------------------|
A|---------2h3h3h3-|----------2h3h3h3----|----------2h3h3h3----22222--00000|   x2
E|-5-5-0-----------|-5-5-0---------------|-5-5-0---------------------------|

	[0:20-0:30]
G|-------------------------------------------------------------------------|
D|-------------------------------------------------------------------------|
A|---7-7-7-7-7-7-777--7-7-7-7-7-7-777--7-7-7-7-7-7-777--7-7-7-7-7-555-7/---|
E|-------------------------------------------------------------------------|

Verse	[0:31-0:47]
G|----------------------------------------|
D|----------------------------------------|
A|-----7-77--777-555--------3-33--333-222-|
E|-000------------------000---------------|


G|----------------------------------------|
D|----------------------------------------|
A|-----7-77--777-555--------3-33--333-222-|
E|-000------------------000---------------|


Different Notes Near the End Of this Section.
G|----------------------------------------|
D|----------------------------------------|
A|-----7-77--777-555--------3-33--333-555-|
E|-000------------------000---------------|


G|----------------------------------------|
D|----------------------------------------|
A|-----7-77--777-555--------3-33--333-222-|
E|-000------------------000---------------|


Chorus	[0:48-1:02]
G|-----------------|----------------------|---------------------------------|
D|-----------------|----------------------|---------------------------------|
A|---------2h3h3h3-|----------2h3h3h3-----|----------2h3h3h3----22222--00000|  x2
E|-5-5-0-----------|-5-5-0----------------|-5-5-0---------------------------|

Verse	[1:03-1:17]
G|----------------------------------------|
D|----------------------------------------|
A|-----7-77--777-555--------3-33--333-222-|
E|-000------------------000---------------|


G|----------------------------------------|
D|----------------------------------------|
A|-----7-77--777-555--------3-33--333-222-|
E|-000------------------000---------------|

Also Different Notes Near the End.
G|----------------------------------------|
D|----------------------------------------|
A|-----7-77--777-555--------3-33--222-555-|
E|-000------------------000---------------|

G|----------------------------------------|
D|----------------------------------------|
A|-----7-77--777-555--------3-33--333-222-|
E|-000------------------000---------------|

Chorus	[1:18-1:32]
G|-----------------|---------------------|---------------------------------|
D|-----------------|---------------------|---------------------------------|
A|---------2h3h3h3-|----------2h3h3h3----|----------2h3h3h3----22222--00000|  x2
E|-5-5-0-----------|-5-5-0---------------|-5-5-0---------------------------|

Break	[1:33-1:55]
G|------------|------------|------------|------------|
D|------------|------------|------------|------------|
A|------------|------------|-7777777777-|-5555555555-|
E|-8888888888-|-7777777777-|------------|------------|

G|--------------|--------------|--------------|--------------|
D|--------------|--------------|--------------|--------------|
A|--------------|--------------|-7777-7777-77-|-5555-5555-55-|
E|-8888-8888-88-|-7777-7777-77-|--------------|--------------|


Rest [1:56-2:05]


 [2:06-2:25]
G|-------------|-------------|------------|------------|------------|------------|--------------|
D|--------10---|-------------|------------|------------|------------|------------|--------------|
A|-88-8-8----8-|-88-8-8-10-8-|-77-7-7-8-7-|-77-7-7-8-7-|-55-5-5-7-5-|-55-5-5-7-5-|-3h2-0--3h2-0-|
E|-------------|-------------|------------|------------|------------|------------|--------------|

---------------|
---------------|
-3h2-0--3h2-0--|
---------------|


G|----------------------------|----------------------------|
D|----------------------------|----------------------------|
A|-8h7-5--8h7-5--8h7-5--8h7-5-|-7h5-3--7h5-3--7h5-3--7h5-3-|
E|----------------------------|----------------------------|


----------------------------|----------------------------|
----------------------------|----------------------------|
-5h3-2--5h3-2--5h3-2--5h3-2-|-3h2-0--3h2-0--3h2-0--3h2-0-|
----------------------------|----------------------------|

Rest	[2:26-2:37]


 [2:38-3:12]
G|--------------------------------|--------------------------------|----------------|
D|--------------------------------|--------------------------------|----------------|
A|-8h7-55--8h7-55--8h7-55--8h7-55-|-7h5-33--7h5-33--7h5-33--7h5-33-|-5h3-22--5h3----|
E|--------------------------------|--------------------------------|----------------|

---------------------|
---------------------|
22--5h3-22--5h3-22---|
---------------------|

1st Ending
|----------------------|
|----------------------|
|-0000-0000-0000-3-3-3-|
|----------------------|

 2nd Ending
G|----------------------|----------------------|----------------------|
D|----------------------|----------------------|----------------------|
A|-0000-0000-0000-3-3-3-|-0000-0000-0000-3-3-3-|-0000-0000-0000-3-3-3-|
E|----------------------|----------------------|----------------------|

|----------------------------|
|----------------------------|
|-0000-0000-0000-3-3-3-3-3-3-|
|----------------------------|

 [3:13-3:43]
G|---------|---------|---------|---------|---------|---------|---------------|
D|---------|---------|---------|---------|---------|---------|---------------|
A|-8-7-555-|-8-7-555-|-7-5-333-|-7-5-333-|-5-3-222-|-5-3-222-|-3-2-----3-2---|
E|---------|---------|---------|---------|---------|---------|----3-5-----3-5|


G|---------------|
D|---------------|
A|-3-2-----3-2---|  x4
E|----3-5-----3-5|

| /  slide up
| \  slide down
| h  hammer-on
| p  pull-off
| ~  vibrato
| +  harmonic
| x  Mute note
===============================================================================
Suggest correction
comments
print report bad tab
4 comments total. Showing first comments.
+1 reply
thatonebassist 10 Feb 17, 2009 08:44 PM

thanks for tabbing this! I've been waiting FOREVER, like seriously. adn it's a great tab! really accurate. thanks again! 5 stars!

+1 reply
-Joe- 50 Feb 18, 2009 07:53 PM

No Problem man!
Thanks!
Im glad you liked it.

also i Posted up Chapter 3 for bass too!

check it out when you have the chance!

Thanks Again!

0 reply
Crusheer 113 Dec 23, 2009 08:00 AM

Amazing work.

guest
You may want to rate the tab now too:
select rating
Wanna post a correction for this tab? Suggest correction