Oops, an error
Loading. Please wait.

Mouths Like Sidewinder Missiles Tab

version 3
version 3
4,915 views 1 this week
4 commentsread comments
1 2 3 4 5
accurate
x 7
add to favorites
launch autoscroll
font size
0
reset
how to read this tab
guitar tuner
Tab Pro tools
  • play this tab
  • loop segment
  • change instrument
  • show fretboard
  • metronome
×
Best way to learn
"Mouths Like Sidewinder Missiles"
Autoscroll
slow
fast
+/-
esc
set tempo
stop
Contributor
MOUTHS LIKE SIDEWINDER MISSILES

This is how I play the song. It's probably a mix of the two overlapping guitars, not just one. 

INTRO

e|---10h12p0---7p5p0---10h12p0---15h17p0---10h12p0---7p5p0---10h12-10h12-10h12-10h12-------------|
B|-----------------------------------------------------------------------------------------------|
G|-9-----------------9-------------------9-----------------9-------------------------------------|
D|-9---------9-------9---------9---------9---------9-------9-------------------------------------|
A|-7---------9-------7---------9---------7---------9-------7-------------------------------------|
E|-----------7-----------------7-------------------7---------------------------------------------|


2x                                      1st Ending              2nd Ending

e|---10h12p0------3h5p3-----10h12p0--|---------15h17p15------|-----------------------------------|
B|-------------3h5-----5-------------|----15h17--------17----|-----------------------------------|
G|-9----------------------9----------|-----------------------|--7777-5554------------------------|
D|-9--------9-------------9----------|--9--------------------|--7777-5554------------------------|
A|-7--------9-------------7----------|--9--------------------|--5555-3332------------------------|
E|----------7------------------------|--7--------------------|-----------------------------------|

e|-----------------------------------------------------------------------------------------------|
B|-----------------------------------------------------------------------------------------------|
G|-99999999-1010101010101010-999999999-1010101010101010-9~---------------------------------------|
D|-99999999-9-9-9-9-9-9-9-9--999999999-9-9-9-9-9-9-9-9--9~---------------------------------------|
A|-77777777-8-8-8-8-8-8-8-8--777777777-8-8-8-8-8-8-8-8--7~---------------------------------------|
E|-----------------------------------------------------------------------------------------------|

VERSE

4x                                                        End On...

e|-------10p0-7p0-5p0-3p0--------10p0-7p0-12p0-10p0------|----------------------------------------|
B|-------------------------------------------------------|---7*-----------------------------------|
G|-----9-------------------------------------------------|----------------------------------------|
D|-----9-----------------------9-------------------------|----------------------------------------|
A|-777-7-----------------------9-------------------------|----------------------------------------|
E|-------------------------777-7-------------------------|----------------------------------------|

CHORUS

2x
                                                                    
e|---10h12p0---10p0-7p5p3p0---10h12p0--------15h17p15------10h12p0---10p0-7p5p3p0-----------------|
B|--------------------------------------15h17--------17-------------------------------------------|
G|-9------------------------9----------------------------9------------------------7777-5554-------|
D|-9---------9--------------9---------9------------------9---------9--------------7777-5554-------|
A|-7---------9--------------7---------9------------------7---------9--------------5555-3332-------|
E|-----------7------------------------7----------------------------7------------------------------|

VERSE

4x                                                        End On...

e|-------10p0-7p0-5p0-3p0--------10p0-7p0-12p0-10p0------|----------------------------------------|
B|-------------------------------------------------------|---12~----------------------------------|
G|-----9-------------------------------------------------|----------------------------------------|
D|-----9-----------------------9-------------------------|----------------------------------------|
A|-777-7-----------------------9-------------------------|----------------------------------------|
E|-------------------------777-7-------------------------|----------------------------------------|

CHORUS

2x
                                                                    
e|---10h12p0---10p0-7p5p3p0---10h12p0--------15h17p15------10h12p0---10p0-7p5p3p0-----------------|
B|--------------------------------------15h17--------17-------------------------------------------|
G|-9------------------------9----------------------------9------------------------7777-5554-------|
D|-9---------9--------------9---------9------------------9---------9--------------7777-5554-------|
A|-7---------9--------------7---------9------------------7---------9--------------5555-3332-------|
E|-----------7------------------------7----------------------------7------------------------------|

BRIDGE

3x

e|------------------------------------------------------------------------------------------------|
B|-12p0-8p0-[4x]-12p0-8p0-15p0-8p0-12p0-8p0--7p0-8p0-3p0-7p0-8p0--7h8p0-7p0-10--3-3p0-------------|
G|------------------------------------------------------------------------------------2h4p2p0-----|
D|------------------------------------------------------------------------------------------------|
A|------------------------------------------------------------------------------------------------|
E|------------------------------------------------------------------------------------------------|

VERSE 2

3x
         [*=4x]
e|------------------------------------------------------------------------------------------------|
B|------------------------------------------------------------------------------------------------|
G|-9*-9*-14*-12*-7*-7*-12*-1010p9---5*-5*-10*-9*-5422*--------------------------------------------|
D|-------------------------------10---------------------------------------------------------------|
A|-7*-7*-12*-10*-5*-5*-10*----------3*-3*--8*-7*-3200*--------------------------------------------|
E|------------------------------------------------------------------------------------------------|


LONG REST


INTERLUDE

2x

e|------------------------------------------------------|-------------------------------------------|
B|------------------------------------------------------|-------------------------------------------|
G|----12-99-12-99-10p910p910p9-5*-5*-10*-9*-4*-4*-4*-555|-4*-4*-4*-555--4*-4*-4*-555-4*-4*-4*-555555|
D|-7~---------------------------------------------------|-------------------------------------------|
A|-7~--------------------------3*-3*--8*-7*-2*-2*-2*-333|-2*-2*-2*-333--2*-2*-2*-333-2*-2*-2*-333333|
E|-5~---------------------------------------------------|-------------------------------------------|

ENDING SOLO


e|--------------------------------------------------------------------------------------------------|
B|---------------------------------------------8~-8h10-12-13-15-13-12-13p12-13p12-8-8h10-10p8p5-----|
G|-7h9-7h9p7p5--4h5p0-0h2--7h97h97h9-7---5-4-5------------------------------------------------------|
D|--------------------------------------------------------------------------------------------------|
A|--------------------------------------------------------------------------------------------------|
E|--------------------------------------------------------------------------------------------------|


ENDING SOLO CONTINUED...                                                           REPEAT
                                                                                   FAST
e|------3h5h7p5----3h5h7p5p3h5p30h3p0---------------12-15-12-15-15h17-15-19-20-19-[17p15--]---------|
B|-5-3h5--------3h5--------------------13-15--13-15-------------------------------[-----17]---------|
G|--------------------------------------------------------------------------------------------------|
D|--------------------------------------------------------------------------------------------------|
A|--------------------------------------------------------------------------------------------------|
E|--------------------------------------------------------------------------------------------------|


END ON...

e|-------------12~//////0---------------------------------------------------------------------------|
B|-5~-8h10~-----------------5~-------5~------10///5-------------------------------------------------|
G|--------------------------------------------------------------------------------------------------|
D|--------------------------------------------------------------------------------------------------|
A|--------------------------------------------------------------------------------------------------|
E|--------------------------------------------------------------------------------------------------|


| \  slide down
| h  hammer-on
| p  pull-off
| ~  vibrato
comments
print report bad tab
4 comments total. Showing first comments.
0 reply
sexlove45 wrote on July 5 2007, 05:32 pm

not bad

0 reply
andrew12398 wrote on December 8 2007, 10:23 pm

One of the guitar parts for the beginning (not sure if this is the one that plays the pulloffs)
is:

-----
-12--8--12---8--12--8----
-
-----

--9--5---9---5---9--5----
-
-----
-----

0 reply
andrew12398 wrote on December 9 2007, 07:33 pm

FFS those are supposed to be octaves.

I want to post or [tab]
guest
You may want to rate the tab now too:
select rating
Please do not post tabs as comments. Select "correction" instead!