Oops, an error
Loading. Please wait.

Nature Vs Nurture Bass Tab

version 1
version 1

Whole song

876 views 1 this week
no commentswrite comment
1 2 3 4 5
excellent!
x 3
add to favorites
launch autoscroll
font size
0
reset
guitar tuner
Autoscroll
slow
fast
+/-
esc
set tempo
stop
Help us to improve Ultimate-Guitar.com Take our survey!
×
Author
-------------------------------------------------------------------------------
		 Nature vs. Nurture - The Fall Of Troy
-------------------------------------------------------------------------------

 Tabbed by:dvanwyk
 Email:dustinvanwyk@yahoo.com

 Tuning:Standard


 Intro
G|-------------------------------------------------------------------------------------------|
D|9-9-9-9-9-9-/6~----9-7-6-7-6----6~--------------------/6-6-6-6-6-6-6-6----9-7-6-7-6----6~--|
A|-----------------------------77-----------------------------------------------------77-----|
E|--------------------------------------7-7-7-7-7-7-7-7--------------------------------------|
 
 Verse x2
G|-----------------------------------9-------------------------------------|
D|---------------7---------------------9-----------------7----------4~-----|
A|-----------7/9---7-------------7/9-----------------7/9---7--5~-55--------|
E|5h7777-5h7----------5h7777-5h7----------5h7777-5h7-----------------------|

 x1
G|-------------|
D|5~-----------|
A|-------------|
E|-------------|

 Chorus x2
G|---------------------------------------------|
D|----------------7----------------------------|
A|------------5-5---5-------7------------------|
E|7-5h7-7-5h7---------5-5-5---4-4-4-4h5--------|

 x2
G|---------------------------------------|
D|---------------------------------------|
A|---------5-5-5-5-----------------------|
E|7-7-7-7----------5-5-5-5-4-4-4-4-------|

 Post-Chorus
G|--------------------------------------------------------------------------------------------|
D|9-9-9-9-9-9-/6~----9-7-6-7-6----6~----9-9-9-9-9-9-9-----6-6-6-6-6-6--------9-7-6-7-6----6~--|
A|-----------------------------77------------------------------------------------------77-----|
E|----------------------------------------------------0-0-------------0-2-3-------------------|

 Verse x2
G|--------------------|
D|5-5-5-5-5-5-5-5-5---|
A|--------------------|
E|--------------------|

 Chorus
 Post-Chorus 
G|------------------------------------------------------------------------------|
D|9-9-9-9-9-9-/6-xxx-6-6-xxx-6-6-xxx-6--9-7-6-7-6----6-xxx-6-6-xxx-6-6-xxx-6----|
A|------------------------------------------------77----------------------------|
E|------------------------------------------------------------------------------|

G|--------------------------------------------------------|
D|9-9-9-9-9-9-/6-xxx-6-6-xxx-6-6-xxx-6--9-7-6-7-6----6~---|
A|------------------------------------------------77------|
E|--------------------------------------------------------|

 Pause

 Bridge (3.21)
G|-----------------------------------------|
D|9-9-9-9-9-9-9-9--------------------------|
A|----------------99--10/-5-5-5-5-5-5-5-5--|
E|-----------------------------------------|


G|-------------------------------------------|
D|9999999999999999---------------------------|
A|-----------------99-10-55555555555555555---|
E|-------------------------------------------|

 x6
G|----------------------------------------------------------------------------------------------|
D|9-9-9-9-9-9-9-9-------------------------9-9-9-9-9-9-9-9-9--------12121212-11111111-10101010---|
A|----------------9-9-10/-5-5-5-5-5-5-5-5--------------------99-10/-----------------------------|
E|----------------------------------------------------------------------------------------------|

 x6
G|------------------------------------|
D|9999-12121212-1111111111-10101010---|
A|------------------------------------|
E|------------------------------------|
Suggest correction
Give kudos to tab author, rate the tab!
1 2 3 4 5
comments
print report bad tab
guest
You may want to rate the tab now too:
select rating
Please do not post tabs as comments. Select "correction" instead!