Oops, an error
Loading. Please wait.

Nature Vs Nurture Bass Tab

version 1
version 1

Intro

Whole song

Interactive

99 views 1 this week
no commentswrite comment
1 2 3 4 5
3 more votes to show rating
add to favorites
launch autoscroll
font size
0
reset
guitar tuner
Autoscroll
slow
fast
+/-
esc
set tempo
stop
Help us to improve Ultimate-Guitar.com Take our survey!
×
Difficulty
novice
G----------------------------------------------|
D----------------------------------------------|   X2
A-2-0------------------------------------------|
E-------4-0-4-2-0-4----------------------------|

G----------------------------------------------------------------------------------------|
D----------------------------------------------------------------------------------------|
A-2-2-2-2-2-2-2-2-----------------------2-0---0------------------------------------------|
E--------------------4-4-4-4-4-4-4-4--------4---4-2-0-4----------------------------------|
Suggest correction
Give kudos to tab author, rate the tab!
1 2 3 4 5
comments
print report bad tab
guest
You may want to rate the tab now too:
select rating
Wanna post a correction for this tab? Suggest correction