Oops, an error
Loading. Please wait.

Nature Vs Nurture Tab

7,200 views 6 this week
4 commentsread comments
1 2 3 4 5
excellent!
x 8
add to favorites
launch autoscroll
font size
0
reset
how to read this tab
guitar tuner
Tab Pro tools
  • play this tab
  • loop segment
  • change instrument
  • show fretboard
  • metronome
×
Best way to learn
"Nature Vs Nurture"
Autoscroll
slow
fast
+/-
esc
set tempo
stop
Contributor
-------------------------------------------------------------------------------
                 Nature vs. Nurture - The Fall Of Troy
-------------------------------------------------------------------------------

 Guitar 1

 Intro x2
e|------------------------|
B|------------------------|
G|------------------------|
D|7-7-7-7-7-7--6~---------|
A|x-x-x-x-x-x--x----------|
E|7-7-7-7-7-7--7~---------|


e|------------------------------------|
B|------------------------------------|
G|------------------------------------|
D|7-7-7-7-7-7-7-7--6-6-6-6-6-6-6-6----|
A|x-x-x-x-x-x-x-x--x-x-x-x-x-x-x-x----|
E|7-7-7-7-7-7-7-7--7-7-7-7-7-7-7-7----|

e|------------------------|
B|------------------------|
G|------------------------|
D|7-7-7-7-7-7--6~---------|
A|x-x-x-x-x-x--x----------|
E|7-7-7-7-7-7--7~---------|


 Verse
e|-------------------------------------------------------|
B|-------------------------------------------------5-----|
G|----------------------4----------------------------4---|
D|----------7---7-6---6---6------------7---7-6---6-------|
A|------5-----5-----7--------------5-----5-----7---------|
E|0-5h7---7------------------0-5h7---7-------------------|

e|----------------------------------------------|
B|----------------------------------------------|
G|----------------------4-----7-77--------------|
D|----------7---7-6---6---6---x-xx-4-4h5p4------|
A|------5-----5-----7---------5-55-x-------5----|
E|0-5h7---7------------------------2---------5--|

e|-------------------------------------------------------|
B|-------------------------------------------------5-----|
G|----------------------4----------------------------4---|
D|----------7---7-6---6---6------------7---7-6---6-------|
A|------5-----5-----7--------------5-----5-----7---------|
E|0-5h7---7------------------0-5h7---7-------------------|

e|----------------------------|
B|----------------------------|
G|----------------------4-----|
D|----------7---7-6---6---6---|
A|------5-----5-----7---------|
E|0-5h7---7-------------------|

e|---------------|
B|---------------|
G|7-77-----------|
D|x-xx-4-44-5~---|
A|5-55-x-xx-x----|
E|-----2-22-3~---|

 Chorus x2
e|-------------------------------------|
B|-------------------------------------|
G|-------------------------------------|
D|9-9-9-9-9--9--9--9--7-7-7-7-6-6-6-6--|
A|x-x-x-x-x--x--x--x--x-x-x-x-x-x-x-x--|
E|7-7-7-7-10-10-10-10-5-5-5-5-4-4-4-4--|

e|------------------------------------------------------------|
B|------------------------------------------------------------|
G|------------------------------------------------------------|
D|9-9-9-9-------------9--9--9--9--7-7-7-7-6-6-6-6-------------|
A|x-x-x-x-4h5p4-4h5p4-x--x--x--x--x-x-x-x-x-x-x-x-4h5p4-4h5p4-|
E|7-7-7-7-------------10-10-10-10-5-5-5-5-4-4-4-4-------------|

e|-------------------------------------------------|
B|-------------------------------------------------|
G|-------------------------------------------------|
D|9-9-9-9-------------9--9--9--9--7-7-7-7-6-6-6-6--|
A|x-x-x-x-4h5p4-4h5p4-x--x--x--x--x-x-x-x-x-x-x-x--|
E|7-7-7-7-------------10-10-10-10-5-5-5-5-4-4-4-4--|

 Post Chorus
e|------------------------|
B|------------------------|
G|------------------------|
D|7-7-7-7-7-7--6~---------|
A|x-x-x-x-x-x--x----------|
E|7-7-7-7-7-7--7~---------|

e|---------------------------------------------|
B|---------------------------------------------|
G|---------------------------------------------|
D|7-7-7-7-7-7-7-7------6-6-6-6-6-6-6-6---------|
A|x-x-x-x-x-x-x-x--55--x-x-x-x-x-x-x-x---------|
E|7-7-7-7-7-7-7-7--55--7-7-7-7-7-7-7-7--0-2-3--|
                   ..                   . . .
e|------------------------|
B|------------------------|
G|------------------------|
D|7-7-7-7-7-7--6~---------|
A|x-x-x-x-x-x--x----------|
E|7-7-7-7-7-7--7~---------|

 Verse

 Chorus

 Post Chorus x3
e|---------------------------------------------|
B|---------------------------------------------|
G|---------------------------------------------|
D|7-7-7-7-7-7-7-7--6-----6-6-----6-6-----6-----|
A|x-x-x-x-x-x-x-x--x-----x-x-----x-x-----x-----|
E|7-7-7-7-7-7-7-7--7-777-7-7-777-7-7-777-7-----|
                     ...     ...     ...                                

e|------------------------|
B|------------------------|
G|------------------------|
D|7-7-7-7-7-7--6~---------|
A|x-x-x-x-x-x--x----------|
E|7-7-7-7-7-7--7~---------|

 Bridge x4
e|--10-------------------------------------|
B|--------10p7---5/7/5------10p0-7---------|
G|7----77------7-------------------9/7/9---|
D|9--------------------9--4----------------|
A|---------------------10-5----------------|
E|-----------------------------------------|
 
 x6
e|----------------------------------------------------------------|
B|----------------------------------------------------------------|
G|777777------------------777777------11111111-10101010-9-9-9-9---|
D|999999-7-9--4-44444444--999999-7-9--12121212-11111111-10101010--|
A|-------9-10-5-55555555---------9-10-----------------------------|
E|----------------------------------------------------------------|

 (4.57 - 5.22)
e|--------------------------------------|
B|--------------------------------------|
G|--777777--11111111-10101010-9-9-9-9---|
D|--999999--12121212-11111111-10101010--|
A|--------------------------------------|
E|--------------------------------------|

===============================================================================


 Guitar 2

 (0.13) (1.34)
e|9-9-9-9-9-9-9-9--1616161616166116--|
B|1010101010101010-1717171717171717--|
G|-----------------------------------|
D|-----------------------------------|
A|-----------------------------------|
E|-----------------------------------|


 (0.20) (1.43) (2.48) (3.00)
e|10-9----10-12-10-9-------|
B|-----10------------9~----|
G|-------------------------|
D|-------------------------|
A|-------------------------|
E|-------------------------|


 (1.34) (2.43) (2.55)
e|9-9-9-9-9-9-9-9--44444444--|
B|1010101010101010-55555555--|
G|---------------------------|
D|---------------------------|
A|---------------------------|
E|---------------------------|



e|----------------------------------------------------------------|
B|----------------------------------------------------------------|
G|777777------------------777777------11111111-10101010-9-9-9-9---|
D|999999-7-9--4-44444444--999999-7-9--12121212-11111111-10101010--|
A|-------9-10-5-55555555---------9-10-----------------------------|
E|----------------------------------------------------------------|

e|---------------------10p9-10p9---------------------------|
B|------10---8p7---7-------------10/12-----------------10--|
G|7-7h9----9-----9---9-----------------11-9h11p9/7-7/9-----|
D|---------------------------------------------------------|
A|---------------------------------------------------------|
E|---------------------------------------------------------|

e|---------------------10p9-10p9-12/14-12-9h10p9-5h7p5--|
B|------10---8p7---7------------------------------------|
G|7-7h9----9-----9---9----------------------------------|
D|------------------------------------------------------|
A|------------------------------------------------------|
E|------------------------------------------------------|


e|---------------------10p9-10p9---------------------------|
B|------10---8p7---7-------------10/12-----------------10--|
G|7-7h9----9-----9---9-----------------11-9h11p9/7-7/9-----|
D|---------------------------------------------------------|
A|---------------------------------------------------------|
E|---------------------------------------------------------|

e|---------------------10p9-10p9-12/14-12-9h10p9-5h7p5--|
B|------10---8p7---7------------------------------------|
G|7-7h9----9-----9---9----------------------------------|
D|------------------------------------------------------|
A|------------------------------------------------------|
E|------------------------------------------------------|


e|14~-17-------------------------------------------------|
B|-------14~--14/15----------------------------14-15-17--|
G|------------------14/16-14-------------14-16-----------|
D|---------------------------16~---14-16-----------------|
A|-------------------------------------------------------|
E|-------------------------------------------------------|


e|14~-17--------12/14-12-9h10p9-5h7p5----|
B|-------14~-15--------------------------|
G|---------------------------------------|
D|---------------------------------------|
A|---------------------------------------|
E|---------------------------------------|

e|14~-17-------------------------------------------------|
B|-------14~--14/15----------------------------14-15-17--|
G|------------------14/16-14-------------14-16-----------|
D|---------------------------16~---14-16-----------------|
A|-------------------------------------------------------|
E|-------------------------------------------------------|


e|14~-17--------17b17b17b17b-1919191919191919--|
B|-------14~-15--------------------------------|
G|---------------------------------------------|
D|---------------------------------------------|
A|---------------------------------------------|
E|---------------------------------------------|
comments
print report bad tab
4 comments total. Showing first comments.
+1 reply
GODhimself37 wrote on October 2 2009, 11:52 pm

5 stars. great tab. especially since it has only been leaked for a few days! Seriously that takes talent and lots of patience. BRAVO :D

+1 reply
Osaka wrote on October 27 2009, 02:30 am

i love you

0 reply
8salad_barre6 wrote on December 30 2009, 10:57 pm

hey for the verse you could just jerk around on E (022100)

I want to post or [tab]
guest
You may want to rate the tab now too:
select rating
Please do not post tabs as comments. Select "correction" instead!