Oops, an error
Loading. Please wait.

Nike Shoes Chain Wallet Tab

2,496 views 1 this week
3 commentsread comments
1 2 3 4 5
accurate
x 4
add to favorites
launch autoscroll
font size
0
reset
how to read this tab
guitar tuner
Autoscroll
slow
fast
+/-
esc
set tempo
stop
Help us to improve Ultimate-Guitar.com Take our survey!
×
Author
Nike Shoes, Chain Wallet

#Intro 1A#
e|---------5-------------5-----------10------------10-----------5-------------5-----------5-------------5------------------|
B|-----8-----8---8---8-----8-----8------8---8---8-----8-----8-----8---8---8-----8-----8-----8---8---8-----8----------------|
G|---5---5-----5---5---5-----5-7---7------7---7--7------7-7---7-----7---7---7-----7-7---7-----7---7---7-----7--------------|
D|-------------------------------------------------------------------------------------------------------------------------|
A|-------------------------------------------------------------------------------------------------------------------------|
E|-------------------------------------------------------------------------------------------------------------------------|

#Intro 1B# h=hammer on
e|----------------------------------------------------------------------------------12--------10---------------------------|
B|-------------------------------------------------------------------------------------------------------------------------|
G|-------------------------------------------------------------------------------------------------------------------------|
D|-------------------------------------------------------------------------------------------------------------------------|
A|-------------------------------------------------------h7----------------------------------------------------------------|
E|-------------------------------------------------------------------------------------------------------------------------|

#Intro 1A (cont.)#
e|-------5----------5----------10----------10-----------5----------5------------5----------5-------------------------------|
B|-----8----8---8-----8------8-----8---8------8-------8----8---8-----8--------8----8---8------8----------------------------|
G|---5--------5---5-----5--7---------7---7------7---7--------7---7-----7----7--------7---7----7----------------------------|
D|-------------------------------------------------------------------------------------------------------------------------|
A|-------------------------------------------------------------------------------------------------------------------------|
E|-------------------------------------------------------------------------------------------------------------------------|

#Intro 1B (cont.)#
e|-------------------------------------------------------------------------------------------------------------------------|
B|---10--------------------12----------------------------------------------------------------------------------------------|
G|--------------------------------------------------9----------------------------------------------------------------------|
D|-------------------------------------------------------------------------------------------------------------------------|
A|--------------------------------------------------------------------------------------------7----------------------------|
E|-------------------------------------------------------------------------------------------------------------------------|

#Chorus 1A# Play 4x /=slide
e|-----------------------------------------------------------------------------|------PLAY---------2x------|---------------|
B|-------------------------------------------------------------------------------------------------------------------------|
G|---12---12---12-12-12---12-12---12-12-12---11--11--11-11-11--11-11--11-11-11--11-11--11-11----7--7--7/9-9----------------|
D|-------------------------------------------------------------------------------------------------------------------------|
A|---10---10---10-10-10---10-10---10-10-10---9---9---9--9--9---9--9---9--9--9---9--9---9--9-----5--5--5/7-7----------------|
E|-------------------------------------------------------------------------------------------------------------------------|

#Chorus 1B# Play 4x
e|-----------------------------------------------------------------------------|------PLAY---------2x------|---------------|
B|-------------------------------------------------------------------------------------------------------------------------|
G|---12---12---12-12-12---12-12---12-12-12---11--11--11-11-11--11-11--11-11-11--11-11--11-11----9--9--9-9-9----------------|
D|-------------------------------------------------------------------------------------------------------------------------|
A|---10---10---10-10-10---10-10---10-10-10---9---9---9--9--9---9--9---9--9--9---9--9---9--9-----7--7--7-7-7----------------|
E|-------------------------------------------------------------------------------------------------------------------------|

#Verse 1A# Play 3x p=pull off
e|---5-5---5-5--5-5-5---10-10---10-10---10-10-10-----15-15---15-15--15-15-15---17--17--------------------------------------|
B|---5-5---5-5--5-5-5---10-10---10-10---10-10-10-----15-15---15-15--15-15-15-----------17p15-17p15-17p15-------------------|
G|---7-7---7-7--7-7-7---12-12---12-12---12-12-12---------------------------------------------------------------------------|
D|-------------------------------------------------------------------------------------------------------------------------|
A|-------------------------------------------------------------------------------------------------------------------------|
E|-------------------------------------------------------------------------------------------------------------------------|

#Verse 1B# Play 3x h=hammer on p=pull off 
e|---5-5---5-5--5-5-5---10-10--10h12-12-12--12p10p0--15-15---15-15--15-15-15---17--17--17p15-------------------------------|
B|---5-5---5-5--5-5-5---10-10------------------------15-15---15-15--15-15-15--------------------17p15h17-------------------|
G|---7-7---7-7--7-7-7---12-12----------------------------------------------------------------------------------------------|
D|-------------------------------------------------------------------------------------------------------------------------|
A|-------------------------------------------------------------------------------------------------------------------------|
E|-------------------------------------------------------------------------------------------------------------------------|

> Play Chorus 1A & Chorus 1B through Verse 1A & Verse 1B

#Verse Lead 1B# !Note! Only played 1st time through Verse after Chorus h=hammer on p=pull off /=slide 
e|---5-5---5-5--5-5-5---10-10--10h12-12-12--10-10-10-10/8-8-8-8/7-7-7-7h8p7-7--3-3--5-------3h5p3--2-2-3-------------------|
B|---5-5---5-5--5-5-5---10-10----------------------------------------------------------------------------------------------|
G|---7-7---7-7--7-7-7---12-12----------------------------------------------------------------------------------------------|
D|-------------------------------------------------------------------------------------------------------------------------|
A|-------------------------------------------------------------------------------------------------------------------------|
E|-------------------------------------------------------------------------------------------------------------------------|

#Chorus 2A# Play 2x /=slide
e|-----------------------------------------------------------------------------|------PLAY---------2x------|---------------|
B|-------------------------------------------------------------------------------------------------------------------------|
G|---12---12---12-12-12---12-12---12-12-12---11--11--11-11-11--11-11--11-11-11--11-11--11-11----7--7--7/9-9----------------|
D|-------------------------------------------------------------------------------------------------------------------------|
A|---10---10---10-10-10---10-10---10-10-10---9---9---9--9--9---9--9---9--9--9---9--9---9--9-----5--5--5/7-7----------------|
E|-------------------------------------------------------------------------------------------------------------------------|

#Chorus 2B# Play 2x
e|-----------------------------------------------------------------------------|------PLAY---------2x------|---------------|
B|-------------------------------------------------------------------------------------------------------------------------|
G|---12---12---12-12-12---12-12---12-12-12---11--11--11-11-11--11-11--11-11-11--11-11--11-11----9--9--9-9-9----------------|
D|-------------------------------------------------------------------------------------------------------------------------|
A|---10---10---10-10-10---10-10---10-10-10---9---9---9--9--9---9--9---9--9--9---9--9---9--9-----7--7--7-7-7----------------|
E|-------------------------------------------------------------------------------------------------------------------------|

#Chorus 2A (cont.)# Play 2x *=Play 8x
e|-----------------------------------------------------------------------------|------PLAY---------2x------|---------------|
B|--------------------------------------------------------------------------------*-------------*--------------------------|
G|---12---12---12-12-12---12-12---12-12-12---11--11--11-11-11--11-11--11-11-11--11-------------7---------------------------|
D|-------------------------------------------------------------------------------------------------------------------------|
A|---10---10---10-10-10---10-10---10-10-10---9---9---9--9--9---9--9---9--9--9---9--------------5---------------------------|
E|-------------------------------------------------------------------------------------------------------------------------|

#Chorus 2B (cont.)# Play 2x *=Play 8x
e|-----------------------------------------------------------------------------|------PLAY---------2x------|---------------|
B|--------------------------------------------------------------------------------*--------------*-------------------------|
G|---12---12---12-12-12---12-12---12-12-12---11--11--11-11-11--11-11--11-11-11--11-------------16--------------------------|
D|-------------------------------------------------------------------------------------------------------------------------|
A|---10---10---10-10-10---10-10---10-10-10---9---9---9--9--9---9--9---9--9--9---9--------------14--------------------------|
E|-------------------------------------------------------------------------------------------------------------------------|

#Bridge 1A# !NOTE! Echo and Delay Effects used .=Echo FX *=Play 8x #=Play 4x b=bend
e|--|--------PLAY------------2x---------|-|-PLAY--2x-|-|----PLAY--------2x----|--------------------------------------------|
B|-------------------------------------------*------*-----#---8-------#----13----------------13-------------13-------------|
G|---11-.-.-.-11-.-.-.-16-.-.-.-16-.-.-.---11-----16----11----11b---16-----16b---11-.-.-.-.--16b------------16b------------|
D|-----------------------------------------9------14----9-----------14-----------------------------------------------------|
A|---9--.-.-.-9--.-.-.-14-.-.-.-14-.-.-.---9------14----9-----------14-----------9--.-.-.-.------------14------------------|
E|-----------------------------------------------------------------------------------------------------0-------------------|

#Bridge 1B# *=Play 8x #=Play 4x b=bend
e|----------------------------------------|-PLAY--2x-|--------------15-15-14-14--12----------12b-10-12-14b--12-------------|
B|-------------------------------------------*-----*------------------#--#--#--#-------------------------------------------|
G|-----------------------------------------11-----5-----11-----------------------------------------------------------------|
D|------------------------------------------------------11-----------------------------------------------------------------|
A|-----------------------------------------9------3-----9------------------------------------------------------------------|
E|-----------------------------------------------------|----PLAY--------2x----|--------------------------------------------|

#Egyptian 1A# x=hand mute
e|---------------------------------------------|---------7-----------------------------------------------------------------|
B|-------------------8--10--8------------------|-10-8-10----10---8--10--8---------------------*----------------------------|
G|-----------------------------9----7--9--7----|--------------------------9----7--9--7-------x-----------------------------|
D|-------------------------------------------9-|---------------------------------------9-----x-----------------------------|
A|---------------------------------------------|---------------------------------------------x-----------------------------|
E|-------------PLAY--------4x------------------|----PLAY---------4x------|-1.-2.-3.-----|-4.-x-----------------------------|


#Egyptian 1B# p=pull off /=slide h=hammer on
e|---------------------------------------------|-------------------------------------7h10----------------------------------|
B|---10p8-10/12/10-----------------------------|-10p8-10/12/10---8--10--8-10p8-10/12---------------------------------------|
G|---------------------------------------------|---------------------------------------------------------------------------|
D|---------------------------------------------|---------------------------------------------------------------------------|
A|---------------------------------------------|---------------------------------------------------------------------------|
E|-------------PLAY--------4x------------------|----PLAY---------4x--------------------------------------------------------|

#Egyptian 2A# h=hammer on b=bend
e|-------7-----7-----7---------------------------------7-----7-----7-------------------------------------------------------|
B|---8h10--8h10--8h10---10---8-----------8---------8h10--8h10--8h10---10--8--10b---------10---10-10--8--7------------------|
G|------------------------------9--7--9----9--7----------------------------------------------------------------------------|
D|-------------------------------------------------------------------------------------------------------------------------|
A|-------------------------------------------------------------------------------------------------------------------------|
E|--|---------PLAY----------------3x-----------|---------------------------------------------------------------------------|

#Egyptian 2B# p=pull off /=slide h=hammer on 
e|---------------------------------------7h10-------------------------------------------7h10-10--10----10------------------|
B|---10p8-10/12/10---8--10--8-10p8-10/12------------10p8-10/12/10---8--10--8-10p8-10/12------------------------------------|
G|-------------------------------------------------------------------------------------------------------------------------|
D|-------------------------------------------------------------------------------------------------------------------------|
A|-------------------------------------------------------------------------------------------------------------------------|
E|--|---------PLAY----------------3x-----------|---------------------------------------------------------------------------|

#Egyptian 3A# ^=Harmonic *=Play as needed
e|-------------------------------------------------------*---------*-------*---------*---------*---------*-------*---------|
B|---17^-17^-17^-17^-17--15--------------15------------10--------12-------14-------16--------17--------19------19----------|
G|---------------------------16--14--16------16--14----13b-------15b------17b------19b-------20b-------22b-----22----------|
D|-------------------------------------------------------------------------------------------------------------------------|
A|-------------------------------------------------------------------------------------------------------------------------|
E|--|---------PLAY----------------2x---------------|-----------------------------------------------------------------------|

#Egyptian 3B# p=pull off /=slide h=hammer on 
e|---------------------------------------------7h10------------------------------------------------------------------------|
B|---10p8-10/12/10---8---10---8--10p8--10/12---------------10p8-10/12/10---8---10---8--10p8--10p8--10p8--10p8--------------|
G|-------------------------------------------------------------------------------------------------------------------------|
D|-------------------------------------------------------------------------------------------------------------------------|
A|-------------------------------------------------------------------------------------------------------------------------|
E|----These last two lines play pretty much in alternation - one then the other - but play them as needed - you'll know----|
Suggest correction
comments
print report bad tab
3 comments total.
+1 reply
jo3myster 247 wrote on June 29 2008, 03:49 pm

good tab but I dont like the way you have your tabs set up its kinda wierd and confusing.

0 reply
Osaka 10 wrote on September 12 2009, 07:06 pm

wished it were better

0 reply
Kylol 88 wrote on October 5 2014, 11:59 am

Lack of accuracy. Clearly wrong. Missing notes in the intro (you can clearly hear the bass notes being played by one guitar), chorus and verse don't sound correct.

guest
You may want to rate the tab now too:
select rating
Wanna post a correction for this tab? Suggest correction