Oops, an error
Loading. Please wait.

Oh The Casino Bass Tab

version 2
version 2

Whole song

Interactive

2,804 views 1 this week
3 commentsread comments
1 2 3 4 5
x 4
add to favorites
launch autoscroll
font size
0
reset
guitar tuner
Autoscroll
slow
fast
+/-
esc
set tempo
stop
Help us to improve Ultimate-Guitar.com Take our survey!
×
Author
Difficulty
Tuning
novice
D A D G B E
Intro 0:00 - 0:17
G:------------------------------------------|
D:------------------------------------------|
A:------3-1-------3-1-------3-1-------------|
D:33-33-----33-33-----33-33-----5-5-5-5-7-5-|

G:---------------------------------------------|
D:---------------------------------------------|   X2
A:------3-1-------3-1-------3-1----------------|
D:33-33-----33-33-----33-33-----5-5-5-5-7-8----|

Verse 0:17 - 0:42
G:-------------------------------------------------|
D:-------------------------------------------------|
A:------------3-3-3-3-3-3-5-5-5-5-5-5--------------|
D:3-3-3-3-3-3-------------------------8-8-8-8-10-8-|

G:---------------------------------------------------|
D:---------------------------------------------------|   X2
A:---------------------------------------------------|
D:3-3-3-3-3-3-1-1-1-1-1-1-0-0-0-0-5-7-8-8-8-8-7-5----|

Chorus 0:42 - 1:00
G:------------------------------------------|
D:------------------------------------------|
A:------3-1-------3-1-------3-1-------------|
D:33-33-----33-33-----33-33-----5-5-5-5-7-5-|

G:---------------------------------------------|
D:---------------------------------------------|   X2
A:------3-1-------3-1-------3-1----------------|
D:33-33-----33-33-----33-33-----5-5-5-5-7-8----|

Verse 1:00 - 1:25
G:-------------------------------------------------|
D:-------------------------------------------------|
A:------------3-3-3-3-3-3-5-5-5-5-5-5--------------|
D:3-3-3-3-3-3-------------------------8-8-8-8-10-8-|

G:------------------------------------------------------|
D:-----------------------------------------------  All--| X2
A:------------------------------------------------------|
D:3-3-3-3-3-3-1-1-1-1-1-1-0-0-0-0-5-7-8-8-8-8-7-5-------|

Prechorus 1:25 - 1:49
G:------------------------------------------------|
D:------------------------------------------------|
A:------------------------------------------------| X2
D:5-7-8-5-7-8-5-7-8-5-7-8-3-5-7-3-5-7-3-5-7-3-5-7-|

G:------------------------------------------------|
D:------------------------------------------------|
A:------------------------------------------------|
D:5-7-8-5-7-8-5-7-8-5-7-8-3-5-7-3-5-7-3-7-5-3-5-7-|

G:------------------------------------------------|
D:------------------------------------------------|
A:------------------------------------------------|
D:5-7-8-5-7-8-5-7-8-5-7-8-3-5-7-3-5-7-3-5-7-3-5-7-|

Outro/Chorus 1:49 - 2:16
G:------------------------------------------|
D:------------------------------------------|
A:------3-1-------3-1-------3-1-------------|
D:33-33-----33-33-----33-33-----5-5-5-5-7-5-|

G:---------------------------------------------|
D:---------------------------------------------|   X2
A:------3-1-------3-1-------3-1----------------|
D:33-33-----33-33-----33-33-----5-5-5-5-7-8----|

G:---------------|
D:---------------|
A:---------------|
D:5-5-5-5-7-8-5~-|
Suggest correction
comments
print report bad tab
3 comments total.
+1 reply
carrotcake 1,997 Aug 18, 2007 12:28 PM

way better than the other one

+1 reply
pinktarantula 73 Aug 19, 2007 07:57 PM

just to let everyone know, the note you end on is 3 not 5. my mistake.

0 reply
debardeleben 78 Jan 16, 2008 10:29 PM

ah dude i just tabbed this out the same way, i wasted my time haha

guest
You may want to rate the tab now too:
select rating
Wanna post a correction for this tab? Suggest correction