Oops, an error
Loading. Please wait.

Oh The Casino Bass Tab

version 3
version 3

Whole song

Interactive

143 views 1 this week
no commentswrite comment
1 2 3 4 5
please rate
add to favorites
launch autoscroll
font size
0
reset
guitar tuner
Tab Pro tools
  • play this tab
  • loop segment
  • change instrument
  • show fretboard
  • metronome
Autoscroll
slow
fast
+/-
esc
set tempo
stop
Contributor
Difficulty
Tuning
novice
D A D G B E
Band: The Fall Of Troy
Song: Oh, The Casino?!
Tabbed By: Chandler [cdebard@charter.net]

Drop D Tuning

Intro (Chorus) x2
G|---------------------------------------------------------------|
D|---------------------------------------------------------------|
A|------3-1-------3-1-------------------3-1-------3-1------------|
E|33-33-----33-33-----5-5-5-5-7-5-33-33-----33-33-----5-5-5-5-7-8|

Verse

G|-------------------------------------------------------------------------|
D|-------------------------------------------------------------------------|
A|------------3-3-3-3-3-3-5-5-5-5-1-1-1------------------------------------|
E|3-3-3-3-3-3---------------------------3-3-3-1-1-1-0-0-0-0-5-7-8-8-8-8-7-5|


Chorus x2 (same as intro)

Verse x2


Verse variation x4

G|--------------------------------------------------------------|
D|--------------------------------------------------------------|
A|--------------------------------------------------------------|
E|5-7-8-5-7-8-5-7-8-5-7-8-3-5-7-3-5-7-3-5-7-3-5-7---------------|

Chorus x2

end on


G|--------|
D|--------|
A|--------|
E|3~------|

comments
We did not receive enough feedback on this tab! Please rate:
print report bad tab
1 2 3 4 5
I want to post or [tab]
guest
You may want to rate the tab now too:
select rating
Please do not post tabs as comments. Select "correction" instead!