Oops, an error
Loading. Please wait.

Oh The Casino Bass Tab

version 4
version 4

Whole song

Interactive

86 views 1 this week
no commentswrite comment
1 2 3 4 5
3 more votes to show rating
add to favorites
launch autoscroll
font size
0
reset
guitar tuner
Autoscroll
slow
fast
+/-
esc
set tempo
stop
Help us to improve Ultimate-Guitar.com Take our survey!
×
Author
Difficulty
Tuning
intermediate
D A D G B E
Intro - About 130 tempo, Drop D tuning.

Key:

./PM - Palm mute
~ - let ring
p - pull off
\ - slide down

G-----------------------------------------------------|
D-----------------------------------------------------|
A--------3-p1---------3-p1----------3-p1--------------|
D-33-33--------33-33--------33--33--------5-5-5-5-7-5-|

G-----------------------------------------------------|
D-----------------------------------------------------|
A--------3-p1---------3-p1----------3-p1--------------|
D-33-33--------33-33--------33--33--------5-5-5-5-7-8-| x2

Verse #1 (bit slower)

G--------------------------|--------------------------|
D--------------------------|--------------------------|
A--------------3-3-3-3-3-3-|-5-5-5-5-5-5\-1-1-1-1-1-1-|
D-3-3-3-3-3-3--------------|--------------------------|

G--------------------------|--------------------------|
D--------------------------|--------------------------|
A--------------------------|--------------------------|
D-3-3-3-3-3-3--1-1-1-1-1-1-|-0-0-0-0-4-6--8-8-8-8-7-5-| x2

Chorus/Intro

G-----------------------------------------------------|
D-----------------------------------------------------|
A--------3-p1---------3-p1----------3-p1--------------|
D-33-33--------33-33--------33--33--------5-5-5-5-7-5-|

G-----------------------------------------------------|
D-----------------------------------------------------|
A--------3-p1---------3-p1----------3-p1--------------|
D-33-33--------33-33--------33--33--------5-5-5-5-7-8-| x2

Verse #2

G--------------------------|--------------------------|
D--------------------------|--------------------------|
A--------------3-3-3-3-3-3-|-5-5-5-5-5-5\-1-1-1-1-1-1-|
D-3-3-3-3-3-3--------------|--------------------------|
  . . . . . .  . . . . . .   . . . . . .  . . . . . .

G--------------------------|--------------------------|
D--------------------------|--------------------------|
A--------------------------|--------------------------|
D-3-3-3-3-3-3--1-1-1-1-1-1-|-0-0-0-0-4-6--8-8-8-8-7-5-| 
PM---------------------------------------------------|

G--------------------------|--------------------------|
D--------------------------|--------------------------|
A--------------3-3-3-3-3-3-|-5-5-5-5-5-5\-1-1-1-1-1-1-|
D-3-3-3-3-3-3--------------|--------------------------|
  . . . . . .  . . . . . .   . . . . . .  . . . . . .

G--------------------------|--------------------------|
D--------------------------|--------------------------|
A--------------------------|--------------------------|
D-3-3-3-3-3-3--1-1-1-1-1-1-|-0-0-0-0-4-6--8-8-8-8-7-5-| 
PM----------------------------------| <<>>

Pre-Chorus

G----------------------------|----------------------------|
D----------------------------|----------------------------|
A----------------------------|----------------------------|
D-5-7-8--5-7-8--5-7-8--5-7-8-|-3-5-7--3-5-7--3-5-7--3-5-7-| x4

Outro

G-----------------------------------------------------|
D-----------------------------------------------------|
A--------3-p1---------3-p1----------3-p1--------------|
D-33-33--------33-33--------33--33--------5-5-5-5-7-5-|

G-----------------------------------------------------|
D-----------------------------------------------------|
A--------3-p1---------3-p1----------3-p1--------------|
D-33-33--------33-33--------33--33--------5-5-5-5-7-8-| x2


G----------------------------------|
D----------------------------------|
A----------------------------------|
D-5-5-5-5-7-8-|-3~~~~~~~~~~~~~~~~~~| (fade)
Suggest correction
Give kudos to tab author, rate the tab!
1 2 3 4 5
comments
print report bad tab
guest
You may want to rate the tab now too:
select rating
Wanna post a correction for this tab? Suggest correction