Oops, an error
Loading. Please wait.

Panic Attack Bass Tab

version 1
version 1

Whole song

Interactive

3,730 views 3 this week
1 commentread comment
1 2 3 4 5
excellent!
x 3
add to favorites
launch autoscroll
font size
0
reset
guitar tuner
Tab Pro tools
  • play this tab
  • loop segment
  • change instrument
  • show fretboard
  • metronome
×
Best way to learn
"Panic Attack"
Autoscroll
slow
fast
+/-
esc
set tempo
stop
Contributor
-------------------------------------------------------------------------------
		  Panic Attack! - The Fall Of Troy
-------------------------------------------------------------------------------

 Tabbed by:dvanwyk
 Email:dustinvanwyk@yahoo.com

 Tuning:Drop D

 Verse (0.12)
G|------------------------------------------------------10----9---7----|
D|---------------------------------------------------------------------|
A|---------------------------------------------------------------------|
D|1212-1010-33-5--1212-1010-77-10-8--1212-1010-33-5--12----10---8---7--|

G|--------------------------------------------------10----9---7----|
D|---------------------------10-8----------------------------------|
A|-----/15------------/15--------------/15-------------------------|
D|1212-----33-5--1212-----77------1212-----33-5--12----10---8---7--|


 Chorus
G|-----------------------------------------------|
D|-----------------------------------------------|
A|------------8-7-6------------------------------|
D|10h12-0-8p7--------10h12-0-8p7-0-5h7-0-3h5-----|

G|----------------------------------|
D|----------------------------------|
A|------------8-7-6-----------------|
D|10h12-0-8p7--------10h12-0-8p7-0--|

G|--------------------------------|
D|--------------------------------|
A|-----------8-7-6----------------|
D|10h12-8p7--------10h12-8p7-5h7--|

G|-----------------------------------|
D|-----------------------------------|
A|-----------8-7-6-------------------|
D|10h12-8p7--------10h12-8p7-5h7-3h5-|


 Verse
 Chorus
  
 x2
G|-----------------------------------------------|
D|-----------------------------------------------|
A|------------8-7-6------------------------------|NB:Second time,gradually slow down
D|10h12-0-8p7--------10h12-0-8p7-0-5h7-0-3h5-----|

 x2
G|-------------------------------------------------------|
D|-------------------------------------------------------|
A|--------------8-00-7-00-6------------------------------|
D|10/121212-8-7--------------10/12121212-8-7--5-7--3-2---|

 
 Verse
G|------------------------------------------------------10----9---7----|
D|---------------------------------------------------------------------|
A|---------------------------------------------------------------------|
D|1212-1010-33-5--1212-1010-77-10-8--1212-1010-33-5--12----10---8---7--|


G|----------------------------------------------------------------------|
D|12----10~---------12----10-------10~--12----10------------------------|
A|---12-----12-10~-----12----12~-----------12---------------------------|
D|----------------------------------------------33-55--1212-1010-88-7---|


 Bridge(2.07)
 x2
G|------------------------------------------------------|
D|--7---8-7-5----7---8-7-5----7---8-7-5----7---8-7-5----|
A|5---5--------5---5--------4---4--------4---4----------|
D|------------------------------------------------------|

G|-------------------------------------------------|
D|--2---2-3-5----2---2-3-5----5---3~---2~---3/5----|
A|3---3--------3---3--------2---2----2----2--------|
D|-------------------------------------------------|

 x2
G|-----------------------------------------------------------------|
D|------------555--------------555---------------------------------|
A|555-777-888-----555-777-888------444-111-000-000-444-111-000-000-|
D|-----------------------------------------------------------------|

G|-----------------------------------------|
D|---22-33-5-----22-33-5----3-2---0--------|
A|33----------33----------1-----1---1-4----|
D|-----------------------------------------|

 Verse

 Outro
G|----------------------------------------------------------------------|
D|12----10~---------12----10-------10~--12----10------------------------|
A|---12-----12-10~-----12----12~-----------12---------------------------|
D|----------------------------------------------33-55--1212-1010-88-7---|

G|--------|
D|--------|
A|888-----|
D|--------|

comments
We did not receive enough feedback on this tab! Please rate:
print report bad tab
1 2 3 4 5
1 comment total.
0 reply
twistedphysics wrote on December 10 2009, 03:17 pm

Thanks dude this is awesome! I wanted to try and tab it out but i couldnt...the only times i can tab something out decently is when i tab it from a live show...haha...well yeah thanks xD

I want to post or [tab]
guest
You may want to rate the tab now too:
select rating
Please do not post tabs as comments. Select "correction" instead!