Oops, an error
Loading. Please wait.

Panic Attack Tab

version 2
version 2

Whole song

Interactive

3,331 views 1 this week
no commentswrite comment
1 2 3 4 5
accurate
x 3
add to favorites
launch autoscroll
font size
0
reset
how to read this tab
guitar tuner
Autoscroll
slow
fast
+/-
esc
set tempo
stop
Help us to improve Ultimate-Guitar.com Take our survey!
×
Author
-------------------------------------------------------------------------------
                             Panic Attack - The Fall of Troy
-------------------------------------------------------------------------------
Tabbed by: NegativeSpace
Email: Thingsthatmakeme@live.com

Tuning: E A D G B e

This song is very intricate as you can tell. Tabbing it all note for note would be a 
so excuse my lazyness in places


Wahh intro
------------------------------------------------------------|
------------------------------------------------------------|
-10--10--9--9--2-2--3-2h3p2--- 10--10--9--9--6--6---9--7----|
------------------------------------------------------------|
------------------------------------------------------------|
-10--10--8--8--1-1-------------10--10--8--8--5--5---8--6----|
first half again then

without wah
------------------------|
------------------------|
--10--10--9--9--7--7--6-|
------------------------|
------------------------|
--10--10--9--9--6--6--5-|

Chorus 1
------------------------------------------------------------|
------------------------------------------------------------|
-10--10--9--9--2-2--3-2h3p2--- 10--10--9--9--6--6---9--7----|
------------------------------------------------------------|
------------------------------------------------------------|
-10--10--8--8--1-1-------------10--10--8--8--5--5---8--6----|

chorus 2
---------------------------------------------------|
---------------------------------------------------|
-10-10--9h10p9--2-2--3p2h3--10-10--9h10p9--6-6-9-7-|
---------------------------------------------------|
---------------------------------------------------|
-10-10----------1-1---------10-10----------5-5-8-6-|

play first half again then play End of Chorus

End of chorus
------------------------|
------------------------|
--10--10--9--9--7--7--6-|
------------------------|
------------------------|
--10--10--9--9--6--6--5-|

Fill 1
---------------------------------------------------|
---------------------------------------------------|
---------------------------------------------------|
---------------------------------------------------|
-----------8p0-7p0-6p0-----------------------------|
----8h10----------------8h10--6-5h6p5--------------|

the pinch harmonic leading into the next fill
   p.h
--------|
--------|
----5---|
--------|
--------|
--------|

fill 2:                                  p.h
---------------------------------------------|
---------------------------------------------|
------------------------------------------5--|
---------------------------------------------|
--------------8p0-7p0-6p0--------------------|
--9h10---5h6--------------9h10--5h6--3h4-----|


                                       p.h
---------------------------------------------------|
---------------------------------------------------|
----------------------------------------5----------|
---------------------------------------------------|
-----------8p0-7p0-6p0-----------------------------|
-9h10--5h6--------------9h10-5h6-3h4-2h3-----------|

play a few times then play

Fill 3
---------------------------------------------------|
--3h4p3h4-5h6p5h6--7h8p7h8---9h10p9h10-------------|
---------------------------------------------------|
---------------------------------------------------|
---------------------------------------------------|
---------------------------------------------------|

play chorus and end of chrorus 1 time
then

chorus 3
-----------------------------------------------------------------------|
-----------10---8h10p8--------------------------10--8h10p8-------------|
--10--10----------------2--2---3-2h3p2---10-10--------------6--6--9-7--|
-----------------------------------------------------------------------|
-----------------------------------------------------------------------|
--10--10----------------1--1-------------10-10--------------5--5--8-6--|

play first half of chorus 2 then play End of chorus

play fill 1 again

instead of fill 2 play

                         p.h p.m
-------------------------------------------------------|
-------------------------------------------------------|
-5/7-777--5/2-222--10xx9--5--5/7----5/2-2-2/5-5-5-5/2--|
-5/7-777--5/2-222--10xx9-----5/7-x6-5/2-2-2/5-5-5-5/2--|
-5/7-777--5/2-222--10xx9-----5/7----5/2-2-2/5-5-5-5/2--|
-------------------------------------------------------|

heres what i think the whammy sounds like, slightly bend it then pull hard

----
----
-1--
----
----
----

chorus 2 one time

pre-solo

------------------------------------------------3h5h6---|
--10-8--8-5---6-5---5-3---10-8---8-5---6-5-3h5h6--------|
-7-----5----3-----2-----7------5-----3------------------|
--------------------------------------------------------|
--------------------------------------------------------|
--------------------------------------------------------|

play half of this again then play End of Chorus again.

Solo 1

Here are the notes palm muted+delay and something else?
(if you know what its called leave in comments please)
pm--------------------------------------------------|
---------13--15-13--------13--15-13---17-15---17-15-|
-----13---------------13------------14------14------|
---14--14--14-------14--14--14----------------------|
-12---------------12--------------------------------|
----------------------------------------------------|
----------------------------------------------------|

solo 1 cont
palm mute lighter
---------13--15-13---|
-----13--------------|
---14--14--14--------|
-12------------------|
---------------------|
---------------------|
stop palm muting
---13-15-13-12-13-------------------------------|
------------------13-15-13----------------------|
-14---------------------------------------------|
------------------------------------------------|
------------------------------------------------|
------------------------------------------------|

solo 1 cont.

-10-12-13-15---10-12-13-15---17-15---17-15---8-12-13-15fb--|
---------------------------14------14----------------------|
-----------------------------------------------------------|
-----------------------------------------------------------|
-----------------------------------------------------------|
-----------------------------------------------------------|

solo 2

tremelo these chords to the rythym of the song

        triplet-------------------------------------|
----------------------------------------------------|
----------------------------------------------------|
----------------------------------------------------|
-7-9-10-12----5------5------6-7-9-10----------------|
-5-7-8--10-x2-3---0--3--0---4-5-7-8--x2-------------|
-5-7-8--10----3---0--3--0---4-5-7-8-----------------|

fill 3
                        p.h
---------------------------------------------------|
---------------------------------------------------|
-------------------------5-------------------------|
---------------------------------------------------|
-----7-7-5-5-3-3-5-5-3-3---------------------------|
-5-5-----------------------------------------------|

solo 2 again

im not entirely sure about this fill so use your judgement
(please if you know how to how to play this part decently place in the comments)
fill 4
---------------------------------------------------------------------------|
---------------------------------------------------------------------------|
---------------------------------------------------------------------------|
---------------------------------------------------------------------------|
---------------------------------------------------------------------------|
---------------------------------------------------------------------------|


play the chorus 1

then chorus 3

the pre-solo and end chorus

and finnally end with

------3h5h6--------------------|
-3h5h6-------------------------|
-------------------------------|
-------------------------------|
-------------------------------|
-------------------------------|

************************************

| /   slide up
| \   slide down
| h   hammer-on
| p   pull-off
| ~   vibrato
| p.h harmonic
| x   Mute note
| b   Bend
| pb  Pre-bend
| br  Bend release
| pbr Pre-bend release
| brb Bend release bend

************************************
Suggest correction new What's this?
You can suggest a correction to this tab. Community and Mods will review your correction and vote to approve or reject it.
comments
We did not receive enough feedback on this tab! Please rate:
print report bad tab
1 2 3 4 5
guest
You may want to rate the tab now too:
select rating
Please do not post tabs as comments. Select "correction" instead!